Slipknot

home > Slipknot

Vermilion (Part 2) Tab

Slipknot

Difficulty: BeginnerBeginner

by BOB%5Ffael

tuner correct add songbook print version text version save to e-mail
chordsukulelecavacokeyboardtabbassdrumsharmonicsflute Guitar Pro
chords

Vermilion (Part 2)

  		 
 
                     Vermilion P.2 
 
 Essas Tablaturas foram feitas por Rafael da Silva Peres,..... 
 
 
 Antes do Corey Teylor falar toquem essa Tablatura duas vezes: 
  
 
 
 1 violao: 
 
 1------------------------------------------------------------/ 
 2-1-1-1-1-1-1-1-1-1-1-1-1------111---------------------------/ 
 3-2-2-2-4-4-4-2-2-2-2-2-2------200---------------------------/ 
 4-2-2-2-2-3-3-3-3-3-2-2-2......222---------------------------/ 
 5-------------------------6x----23.....----------------------/ rep.2x 
 6----------------------------------10x-----------------------/ 
 
 2 violao:acompanhando o primeiro violao 
  
 1------------------------------------------------------------/ 
 2------------------------------------------------------------/ 
 3-2--4-------------------------------------------------------/ 
 4-------4--2---rep.6x----------------------------------------/ 
 5------------------------------------------------------------/ 
 6------------------------------------------------------------/ 
  
 Repita isso ate a parte do violino: 
  
 1------------------------------------------------------------/ 
 2-0-----2--3---------2-0---1---------------------------------/ 
 3-------------0---3------3-----------------------------------/ 
 4------------------------------------------------------------/ 
 5------------------------------------------------------------/ 
 6------------------------------------------------------------/ 
  
 Repita mais umas 10x e depois fasa a ultima tablatura: 
 
 1-----------13---12--------------------------------------------/ 
 2-10---12----------------------------------------------------/ 
 3------------------------------------------------------------/ 
 4------------------------------------------------------------/ 
 5------------------------------------------------------------/ 
 6------------------------------------------------------------/ 
 
 
  Facil ne... 
  Ce quiserem mais tablaturas me adicionem em seus MSN : [email protected] ou ICQ:127.0.0.1 
  ou meu Fotolog:Faelhotmailcom.flogao.com.br 
 
 
 

	  

Search Paypal
auto scroll beats size up size down change color hide chords drawings
tab show chords e-chords YouTube Clip e-chords hide all tabs e-chords go to top tab