Slipknot

home > Slipknot

Vendetta Tab

Slipknot

Difficulty: ExpertExpert

by tercmoraes

tuner correct add songbook print version text version save to e-mail
chordsukulelecavacokeyboardtabbassdrumsharmonicsflute Guitar Pro
chords

Vendetta

  		Tuning: Drop B 

TP = Tremolo Picking 
PM/"." = Palm Mute 

INTRO: 
C#|-------------------------|-------------------------| 
G#|-------------------------|-------------------------| 
E|*------------------------|--------------------------| 
B|*------------------------|-------------------0-0----| 
F#|-------------------------|-------------------0-0---| 
B|---0--3----2--5----3--6--|--0--3----2--5----0-0----| 
       TP------------------------------------>   . . 
  
---------------------------|| 
---------------------------|| 
--------------------------*|| 
--------------------------*|| 
--0--0--0--0--0--0--0--0---|| 
--0--0--0--0--0--0--0--0---|| 
  PM--------------------> 

|---------------------------|-------------------------| 
|---------------------------|-------------------------| 
|*--------------------------|-------------------------| 
|*--4--7----6--9----7--10--|--4--7----6--9----0-0---| 
|---------------------------|-------------------0-0---| 
|---------------------------|-------------------0-0---| 
    TP-------------------------------------->   . . 

---------------------------|| 
---------------------------|| 
--------------------------*|| 
--------------------------*|| 
--0--0--0--0--0--0--0--0---|| 
--0--0--0--0--0--0--0--0---|| 
  PM--------------------> 

---------------------------------------------------| 
---------------------------------------------------| 
---------------------------------------------------| 
---------------------------------------------------| 
--0--0--0--0--0--0--0--0-0-0--0--0--0--0--0--0--0--| 
--0--0--0--0--0--0--0--0-0-0--0--0--0--0--0--0--0--| 
PM------------------------------------------------> 

----------------------------------------------------| 
----------------------------------------------------| 
----------------------------------------------------| 
----------------------------------------------------| 
--0--0--0-0-0--0--0--0--0--0--0--0--0--0--0-0-0--0--| 
--0--0--0-0-0--0--0--0--0--0--0--0--0--0--0-0-0--0--| 
PM------------------------------------------------>s 

VERSE 1: 
--------------------------------------------------| 
--------------------------------------------------| 
--------------------------------------------------| 
--------------------------------------------------| 
--12--0--0-0-0--1p0--0--0--0-0-0--3/53--0--0-0--| 
--12--0--0-0-0--1p0--0--0--0-0-0--3/53--0--0-0--| 
       .  . . .       .  .  . . .         .  . . 

-----------------------------------------------| 
-----------------------------------------------| 
-------------109-9/12-12-12-------------------| 
-----------------------------------------------| 
--0--1p0-0----87-7/10-10-10-0--0--0--0--1p0-0-| 
--0--1p0-0-------------------0--0--0--0--1p0-0-| 
                             .  .  .  .      .  

---------------------------------------------------| 
---------------------------------------------------| 
-----------------------------------1210-10-109-9-| 
---------------------------------------------------| 
--0--0-0-0--3/53-0--0-0-0--1p0-0--10-8--8--87-7-| 
--0--0-0-0--3/53-0--0-0-0--1p0-0------------------| 
  .  . . .        .  . . .      .     

---------------------------------------------| 
---------------------------------------------| 
---------------------------------------------| 
---------------------------------------------| 
--0--0-0-0--1p0--0--0--0-0-0--3/53--0--0-0--| 
--0--0-0-0--1p0--0--0--0-0-0--3/53--0--0-0--| 
  .  . . .       .  .  . . .         .  . . 

-----------------------------------------------| 
-----------------------------------------------| 
-------------109-9/12-12-12-------------------| 
-----------------------------------------------| 
--0--1p0-0----87-7/10-10-10-0--0--0--0--1p0-0-| 
--0--1p0-0-------------------0--0--0--0--1p0-0-| 
                             .  .  .  .      .  

---------------------------------------------------| 
---------------------------------------------------| 
-----------------------------------1210-10-109-9-| 
---------------------------------------------------| 
--0--0-0-0--3/53-0--0-0-0--1p0-0--10-8--8--87-7-| 
--0--0-0-0--3/53-0--0-0-0--1p0-0------------------| 
  .  . . .        .  . . .      .     

---------------------------------------------| 
---------------------------------------------| 
---------------------------------------------| 
---------------------------------------------| 
--0--0-0-0--1p0--0--0--0-0-0--3/53--0--0-0--| 
--0--0-0-0--1p0--0--0--0-0-0--3/53--0--0-0--| 
  .  . . .       .  .  . . .         .  . . 

-----------------------------------------------| 
-----------------------------------------------| 
-------------109-9/12-12-12-------------------| 
-----------------------------------------------| 
--0--1p0-0----87-7/10-10-10-0--0--0--0--1p0-0-| 
--0--1p0-0-------------------0--0--0--0--1p0-0-| 
                             .  .  .  .      .  

------------------------------------------------| 
------------------------------------------------| 
-----------------------------------1210-10-10-| 
------------------------------------------------| 
--0--0-0-0--3/53-0--0-0-0--1p0-0--10-8--8--8-| 
--0--0-0-0--3/53-0--0-0-0--1p0-0---------------| 
  .  . . .        .  . . .      .     

PLAY INTRO AGAIN 

PLAY VERSE AGAIN 

BRIDGE: 
|---------------------------------------------------| 
|---------------------------------------------------| 
|*--------------------------------------------------| 
|*--------------------------------------------------| 
|---------------------------------------------------| 
|---0--3--2--0--2--1--0--3--2--5--3--6--5--4--5--4--| 
PM-----------------------------------------------> 

---------------------------------------------------|| 
---------------------------------------------------|| 
--------------------------------------------------*|| 
--------------------------------------------------*|| 
---------------------------------------------------|| 
--3--4--3--2--3--2--1--0--3--2--0--2--1--0--3--0---|| 
PM---------------------------------------------> 

Chorus: 
-----------------------------|---------------------------| 
-----------------------------|---------------------------| 
-----------------------------|---------------------------| 
-----------------------------|---------------------------| 
--12--0--0--6---5---3~---0--|--0-8---7---1~---0--0--6---| 
--12--0--0--6---5---3~---0--|--0-8---7---1~---0--0--6---| 
       .  .               .     .              .  . 

----------------------------|-------------------------------| 
----------------------------|-------------------------------| 
----------------------------|-------------------------------| 
----------------------------|-------------------------------| 
--5---3~---0--0--3---2---1~-|------0--0--6----5----3~---0--| 
--5---3~---0--0--3---2---1~-|------0--0--6----5----3~---0--| 
           .  .                     .  .                 . 

---------------------------|-----------------------------|| 
---------------------------|-----------------------------|| 
---------------------------|-----------------------------|| 
---------------------------|-----------------------------|| 
--0-8---7---1~---0--0--6---|--5---3~---0--0--3---2----|| 
--0-8---7---1~---0--0--6---|--5---3~---0--0--3---2-------|| 
  .              .  .                  .  . 

PLAY INTRO 

PLAY VERSE 

PLAY BRIDGE (one time palm muted and one time without palm mute) 

Chorus 2: 
------------------------| 
------------------------| 
------------------------| 
------------------------| 
--0--0--6---5---3~---0--| 
--0--0--6---5---3~---0--| 
  .  .               .   

------------------------------|-----------------------------| 
------------------------------|-----------------------------| 
------------------------------|-----------------------------| 
------------------------------|-----------------------------| 
--5---3~---0--0--3---2---~-|-----0--0--6----5----3~---0--| 
--5---3~---0--0--3---2--------|-----0--0--6----5----3~---0--| 
           .  .                     .  .                 . 

---------------------------|----------------------------| 
---------------------------|----------------------------| 
---------------------------|----------------------------| 
---------------------------|----------------------------| 
--0-8---7---1~---0--0--6---|--5---3~---0--0--3---2---1~-| 
--0-8---7---1~---0--0--6---|--5---3~---0--0--3---2---1~-| 
    .              .  .                  .  .           
  
||--------------------------|-----------------------------| 
||--------------------------|-----------------------------| 
||--------------------------|-----------------------------| 
||--------------------------|-----------------------------| 
||--0--0--6---5---~---0--|--0-8---7---~---0--0--6---| 
||--0--0--6---5----------0--|--0-8---7----------0--0--6---| 
    .  .                 .     .                .  .     

--------------------------------|| 
--------------------------------|| 
--------------------------------|| 
--------------------------------|| x2 
--5---~---0--0--3---2---1~-|| 
--5----------0--0--3---2--------|| 
             .  . 

BREAKDOWN: 
------------------------------------|------------------------------------| 
------------------------------------|------------------------------------| 
------------------------------------|------------------------------------| 
------------------------------------|----8-----7-----75/8-------------| 
--------0--3--2------------0--3--2--|----6--0--5--0--53/6-1--0--3--2--| 
--/3~---0--3--2----/3--/3--0--3--2--|-------0-----0--------1--0--3--2--| 
        .  .  .            .  .  .          .     .        .  .  .  . 

----------------------------------|| 
----------------------------------|| 
----------------------------------|| 
-------------------5-----5--------|| play that for quite a while 
----------0--3--2--3--0--3--5--4--|| 
--/3--/3--0--3--2-----0-----5--4--|| 
          .  .  .     .     .  . 

PLAY INTRO 

PLAY BRIDGE ONLY ONCE 

PLAY Chorus 

PLAY BREAKDOWN 
	  

Search Paypal
auto scroll beats size up size down change color hide chords drawings
tab show chords e-chords YouTube Clip e-chords hide all tabs e-chords go to top tab