Slipknot

home > Slipknot

The Negative One Tab

Slipknot

Difficulty: nolevelnolevel

by anonymousss

tuner correct add songbook print version text version save to e-mail
chordsukulelecavacokeyboardtabbassdrumsharmonicsflute Guitar Pro
chords

The Negative One

(slipknot)

  		
Tuning: B F# B E G# c# 

^=HAMMER ON 
)(=BEND/UNBEND 


-------------------------------------------------------| 
-------------------------------------------------------| 
-------------------------------------------------------| 
----__-----__----__------------__-----__----__---------| 
--^-)(---^-)(--^-)(---^------^-)(---^-)(--^-)(--^---^--| 
-0-1----0-1---0-1----0-1-0--0-1----0-1---0-1---0-1-0-1-| 


-------------------------------------------------------| 
-------------------------------------------------------| 
-------------------------------------------------------| 
----__-----__----__------------__-----__---------------| 
--^-)(---^-)(--^-)(---^------^-)(---^-)(--^--0-0-------| 
-0-1----0-1---0-1----0-1-0--0-1----0-1---0-1-0-0-------| 
                                             * * 



0:36 


-------------------------------------------------------| 
-------------------------------------------------------| 
-------------------------------------------------------| 
----__-----__----__------------__-----__----__---------| 
--^-)(---^-)(--^-)(---^------^-)(---^-)(--^-)(--^---^--| 
-0-1----0-1---0-1----0-1-0--0-1----0-1---0-1---0-1-0-1-| 


-------------------------------------------------------| 
-------------------------------------------------------| 
-------------------------------------------------------| 
----__-----__----__------------__-----__----__---------| 
--^-)(---^-)(--^-)(---^------^-)(---^-)(--^-)(--^---^--| 
-0-1----0-1---0-1----0-1-0--0-1----0-1---0-1---0-1-0-1-| 



-------------------------------------------------------| 
-------------------------------------------------------| 
-------------------------------------------------------| 
----__-----__----__------------__-----__----__---------| 
--^-)(---^-)(--^-)(---^------^-)(---^-)(--^-)(--^---^--| 
-0-1----0-1---0-1----0-1-0--0-1----0-1---0-1---0-1-0-1-| 

-------------------------------------------------------| 
-------------------------------------------------------| 
-------------------------------------------------------| 
----__-----__----__------------__-----__----__---------| 
--^-)(---^-)(--^-)(---^------^-)(---^-)(--^-)(--^---^--| 
-0-1----0-1---0-1----0-1-0--0-1----0-1---0-1---0-1-0-1-| 


-----------------------------------------------------------| 
-----------------------------------------------------------| 
-----------------------------------------------------------| 
----__-----__----__------------__-----__----__-------------| 
--^-)(---^-)(--^-)(---^------^-)(---^-)(--^-)(--^---^---^--| 
-0-1----0-1---0-1----0-1-0--0-1----0-1---0-1---0-1-0-1-0-1-| 





1:03 


------------------------------------------------------------| 
------------------------------------------------------------| 
------------------------------------------------------------| 
---^---^-----------^---^-------------------^-------^---^----| 
--0-1-0-1-0---0-1-0-1-0-1-0---0-1-3/4\3-1-3-1-0-1-0-1-0-1-0-| 
--0-1-0-1-0---0-1-0-1-0-1-0---0-1-3/4\3-1-3-1-0-1-0-1-0-1-0-| 


---------------------------------------------------------------| 
---------------------------------------------------------------| 
---------------------------------------------------------------| 
------^---^-----------^---^-------------------^------^---^-----| 
-0-1-0-1-0-1-0---0-1-0-1-0-1-0---0-1-3/4\3-1-3-1-0-1-0-1-0-1-0-| 
-0-1-0-1-0-1-0---0-1-0-1-0-1-0---0-1-3/4\3-1-3-1-0-1-0-1-0-1-0-| 



L 
-----------------------------------------------------------------------------------------| 
-----------------------------------------------------------------------------------------| 
-----------------------------------------------------------------------------------------| 
----------------------------------------------------------------^-----------^-----^------| 
12-13-12-13-12-13-12--12-13-12-13-12-13-12--12-13-15/16\15-13-15-13-12-13-12-13-12-13-12-| 
12-13-12-13-12-13-12--12-13-12-13-12-13-12--12-13-15/16\15-13-15-13-12-13-12-13-12-13-12-| 


R 
---------------------------------------------------------------| 
---------------------------------------------------------------| 
---------------------------------------------------------------| 
------^---^-----------^---^-------------------^-------^---^----| 
-0-1-0-1-0-1-0---0-1-0-1-0-1-0---0-1-3/4\3-1-3-1-0-1-0-1-0-1-0-| 
-0-1-0-1-0-1-0---0-1-0-1-0-1-0---0-1-3/4\3-1-3-1-0-1-0-1-0-1-0-| 



L 
--------------------------------------------------------------------------------------------------| 
--------------------------------------------------------------------------------------------------| 
--------------------------------------------------------------------------------------------------| 
--------^-----^---------------^-----^---------------------------^-----------------------^---------| 
12-13-12-13-12-13-12--12-13-12-13-12-13-12--12-13-15/16\15-13-15-13-12-13-15/16\15-13-15-13-12-13-| 
12-13-12-13-12-13-12--12-13-12-13-12-13-12--12-13-15/16\15-13-15-13-12-13-15/16\15-13-15-13-12-13-| 
--------------------------------------------------------------------------------------------------| 

R 
-------------------------------------------------------------------------| 
-------------------------------------------------------------------------| 
-------------------------------------------------------------------------| 
------^---^-----------^---^-------------------^---------------^----------| 
-0-1-0-1-0-1-0---0-1-0-1-0-1-0---0-1-3/4\3-1-3-1-0-1-3/4\3-1-3-1-0-1-----| 
-0-1-0-1-0-1-0---0-1-0-1-0-1-0---0-1-3/4\3-1-3-1-0-1-3/4\3-1-3-1-0-1-----| 





1:21 



--------------------------------------------------------------------| 
--------------------------------------------------------------------| 
-------------------------------------------8-8-8-8-8-7-7-7-7-3-3-3--| 
-------------------------------------------X-X-X-X-X-X-X-X-X-X-X-X--| 
----------------------------------------0--6-6-6-6-6-5-5-5-5-1-1-1--| 
-6~\-0-5~--\-0-6-6-8-5~--\-0-6~-\-0-5~--0---------------------------| 


--------------------------------------------------------------------| 
--------------------------------------------------------------------| 
-------------------------------------------8-8-8-8-8-7-7-7-7-3-3-3--| 
-------------------------------------------X-X-X-X-X-X-X-X-X-X-X-X--| 
----------------------------------------0--6-6-6-6-6-5-5-5-5-1-1-1--| 
-6~\-0-5~--\-0-6-6-8-5~--\-0-6~-\-0-5~--0---------------------------| 



L 
----------------------------| 
----------------------------| 
----------------------------| 
----------------------------| 
--^---^-----------^---^-----| 
-0-1-0-1-0---0-1-0-1-0-1-0--| 



1:41 


B 
------------------------------------------------------------| 
------------------------------------------------------------| 
------------------------------------------------------------| 
---^---^-----------^---^-------------------^------^---^-----| 
--0-1-0-1-0---0-1-0-1-0-1-0---0-1-3/4\3-1-3-1-0-1-0-1-0-1-0-| 
--0-1-0-1-0---0-1-0-1-0-1-0---0-1-3/4\3-1-3-1-0-1-0-1-0-1-0-| 


---------------------------------------------------------------| 
---------------------------------------------------------------| 
---------------------------------------------------------------| 
------^---^-----------^---^-------------------^------^---^-----| 
-0-1-0-1-0-1-0---0-1-0-1-0-1-0---0-1-3/4\3\1-3-1-0-1-0-1-0-1-0-| 
-0-1-0-1-0-1-0---0-1-0-1-0-1-0---0-1-3/4\3\1-3-1-0-1-0-1-0-1-0-| 



L 
-----------------------------------------------------------------------------------------| 
-----------------------------------------------------------------------------------------| 
-----------------------------------------------------------------------------------------| 
----------------------------------------------------------------^-----------^-----^------| 
12-13-12-13-12-13-12--12-13-12-13-12-13-12--12-13-15/16\15-13-15-13-12-13-12-13-12-13-12-| 
12-13-12-13-12-13-12--12-13-12-13-12-13-12--12-13-15/16\15-13-15-13-12-13-12-13-12-13-12-| 


R 
---------------------------------------------------------------| 
---------------------------------------------------------------| 
---------------------------------------------------------------| 
------^---^-----------^---^-------------------^------^---^-----| 
-0-1-0-1-0-1-0---0-1-0-1-0-1-0---0-1-3/4\3-1-3-1-0-1-0-1-0-1-0-| 
-0-1-0-1-0-1-0---0-1-0-1-0-1-0---0-1-3/4\3-1-3-1-0-1-0-1-0-1-0-| 



L 
--------------------------------------------------------------------------------------------------| 
--------------------------------------------------------------------------------------------------| 
--------------------------------------------------------------------------------------------------| 
--------------------------------------------------------------------------------------------------| 
--------^-----^---------------^-----^---------------------------^-----------------------^---------| 
12-13-12-13-12-13-12--12-13-12-13-12-13-12--12-13-15/16\15-13-15-13-12-13-15/16\15-13-15-13-12-13-| 
12-13-12-13-12-13-12--12-13-12-13-12-13-12--12-13-15/16\15-13-15-13-12-13-15/16\15-13-15-13-12-13-| 

R 
-------------------------------------------------------------------------| 
-------------------------------------------------------------------------| 
-------------------------------------------------------------------------| 
------^---^-----------^---^-------------------^---------------^----------| 
-0-1-0-1-0-1-0---0-1-0-1-0-1-0---0-1-3/4\3-1-3-1-0-1-3/4\3-1-3-1-0-1-----| 
-0-1-0-1-0-1-0---0-1-0-1-0-1-0---0-1-3/4\3-1-3-1-0-1-3/4\3-1-3-1-0-1-----| 






1:58 


--------------------------------------------------------------------| 
--------------------------------------------------------------------| 
-------------------------------------------8-8-8-8-8-7-7-7-7-3-3-3--| 
-------------------------------------------X-X-X-X-X-X-X-X-X-X-X-X--| 
----------------------------------------0--6-6-6-6-6-5-5-5-5-1-1-1--| 
-6~\-0-5~--\-0-6-6-8-5~--\-0-6~-\-0-5~--0---------------------------| 


--------------------------------------------------------------------| 
--------------------------------------------------------------------| 
-------------------------------------------8-8-8-8-8-7-7-7-7-3-3-3--| 
-------------------------------------------X-X-X-X-X-X-X-X-X-X-X-X--| 
----------------------------------------0--6-6-6-6-6-5-5-5-5-1-1-1--| 
-6~\-0-5~--\-0-6-6-8-5~--\-0-6~-\-0-5~--0---------------------------| 





L 
------------------------------------------------------------------------| 
------------------------------------------------------------------------| 
----8-8-8-8-8-7-7-7-7-14-14-14-----8-8-8-8-8-7-7-7-7-17-17-19-17-14-14--| 
----X-X-X-X-X-X-X-X-X--X--X--X-----X-X-X-X-X-X-X-X-X--X--X--X--X--X--X--| 
-0--6-6-6-6-6-5-5-5-5-12-12-12--0--6-6-6-6-6-5-5-5-5-15-15/17~15\12-12~-| 
-0------------------------------0---------------------------------------| 

R 
------------------------------------------------------------------------| 
------------------------------------------------------------------------| 
----8-8-8-8-8-7-7-7-7-14-14-14-----8-8-8-8-8-7-7-7-7--------------------| 
----X-X-X-X-X-X-X-X-X--X--X--X-----X-X-X-X-X-X-X-X-X--10-10/12~-10\7-7--| 
-0--6-6-6-6-6-5-5-5-5-12-12-12--0--6-6-6-6-6-5-5-5-5---X--X--X---X-X-X--| 
-0------------------------------0---------------------10-10/12~-10\7-7~-| 







2;23 


-------------------------------------------------------------| 
-------------------------------------------------------------| 
---_-----7-8----8-8-8-8-7-7-7----_-----7-8---10101010-7-7-7--| 
--/ \----5-6----X-X-X-X-X-X-X---/ \----5-6----X-X-X-X-X-X-X--| 
-6-5-0-6-5/6-0--6-6-6-6-5-5-5--6-5-0-6-5/6-0--8-8-8-8-5-5-5--| 
-6-5-0-6-----0-----------------6-5-0-6-----0-----------------| 


----------------------------------------------------------------| 
----------------------------------------------------------------| 
---_-----7-8----8-8-8-8-7-7-7-----------------------------------| 
--/ \----5-6----X-X-X-X-X-X-X--------------------------10101010-| 
-6-5-0-6-5/6-0--6-6-6-6-5-5-5---------------------------X-X-X-X-| 
-6-5-0-6-----0-----------------8-8-8-8-8-8-7-7-7-7-7-7-10101010-| 



-------------------------------------------------------------| 
-------------------------------------------------------------| 
---_-----7-8----8-8-8-8-7-7-7----_-----7-8---10101010-7-7-7--| 
--/ \----5-6----X-X-X-X-X-X-X---/ \----5-6----X-X-X-X-X-X-X--| 
-6-5-0-6-5/6-0--6-6-6-6-5-5-5--6-5-0-6-5/6-0--8-8-8-8-5-5-5--| 
-6-5-0-6-----0-----------------6-5-0-6-----0-----------------| 


---------------------------------------------------------------| 
---------------------------------------------------------------| 
---_-----7-8----8-8-8-8-7-7-7----------------------------------| 
--/ \----5-6----X-X-X-X-X-X-X----------------------------------| 
-6-5-0-6-5/6-0--6-6-6-6-5-5-5----------------------------------| 
-6-5-0-6-----0-----------------8-8-8-8-8-8-7-7-7-7-7-7-1-1-1-1-| 






2:41 


L 
----------------------------------------------------| 
----------------------------------------------------| 
----------------------------------------------------| 
----__-----__----__---------__-----__----__---------| 
--^-)(---^-)(--^-)(-------^-)(---^-)(--^-)(--^---^--| 
-0-1----0-1---0-1-----0--0-1----0-1---0-1---0-1-0-1-| 


B 
-------------------------------------------------------| 
-------------------------------------------------------| 
-------------------------------------------------------| 
----__-----__----__------------__-----__----__---------| 
--^-)(---^-)(--^-)(---^------^-)(---^-)(--^-)(--^---^--| 
-0-1----0-1---0-1----0-1-0--0-1----0-1---0-1---0-1-0-1-| 


-------------------------------------------------------| 
-------------------------------------------------------| 
-------------------------------------------------------| 
----__-----__----__------------__-----__----__---------| 
--^-)(---^-)(--^-)(---^------^-)(---^-)(--^-)(--^---^--| 
-0-1----0-1---0-1----0-1-0--0-1----0-1---0-1---0-1-0-1-| 


-------------------------------------------------------| 
-------------------------------------------------------| 
-------------------------------------------------------| 
----__-----__----__------------__-----__----__---------| 
--^-)(---^-)(--^-)(---^------^-)(---^-)(--^-)(--^---^--| 
-0-1----0-1---0-1----0-1-0--0-1----0-1---0-1---0-1-0-1-| 




2:58 USE 2 FINGERS 

-------------------------------------------------------| 
-------------------------------------------------------| 
----__-----__----__------------__-----__----__---------| 
--^-)(---^-)(--^-)(---^------^-)(---^-)(--^-)(--^---^--| 
-0-1----0-1---0-1----0-1-0--0-1----0-1---0-1---0-1-0-1-| 
-0-1----0-1---0-1----0-1-0--0-1----0-1---0-1---0-1-0-1-| 



----------------------------------------------------------| 
----------------------------------------------------------| 
----__-----__----__------------__-----__----__------------| 
--^-)(---^-)(--^-)(---^------^-)(---^-)(--^-)(--^---^---^-| 
-0-1----0-1---0-1----0-1-0--0-1----0-1---0-1---0-1-0-1-0-1| 
-0-1----0-1---0-1----0-1-0--0-1----0-1---0-1---0-1-0-1-0-1| 






3:07 

-------------------------------------------------| 
-------------------------------------------------| 
-------------------------------------------------| 
-------------------------------------------------| 
-------------------------------------------------| 
-013431310---013431310---013431310---013431310---| 
 *********   *********   *********   ********* 


-------------------------------------------------| 
-------------------------------------------------| 
-------------------------------------------------| 
-------------------------------------------------| 
-------------------------------------------------| 
-035653530---035653530---035653530---035653530---| 
 *********   *********   *********   ********* 

-------------------------------------------------| 
-------------------------------------------------| 
-------------------------------------------------| 
-------------------------------------------------| 
-------------------------------------------------| 
-013431310---013431310---013431310---013431310---| 
 *********   *********   *********   ********* 


--------------------------------------------------------| 
--------------------------------------------------------| 
--------------------------------------------------------| 
--------------------------------------------------------| 
--------------------------------------------------------| 
-035653530---035653530---035653530---035653530-11110000-| 
 *********   *********   *********   ********* 


------------------------------------------------------------| 
------------------------------------------------------------| 
------------------------------------------------------------| 
---------77778888-------------------------------------------| 
-66665555--------66665555-----------------------------------| 
--------------------------0000111133335555666655553333////--| 



L 
-------------------------------------------------------| 
-------------------------------------------------------| 
---------10101010------------10101010------------------| 
-88887777--------888877778888--------8888--------------| 
-------------------------------------------------------| 
-------------------------------------------------------| 

R 
-----------------------------------------------------------| 
-----------------------------------------------------------| 
-----------------------------------------------------------| 
-----------------------------------------------------------| 
----------------12121212------------------------12121212---| 
1313131312121212--------131313131212121213131313--------13\| 



------------*+1OCTAVE-----| 
--------------------------| 
--------------------------| 
--------------------------| 
-1--0--1--0--1--0--1--0---| 
-1--0--1--0--1--0--1--0---| 
 *  *  *  *  *  *  *  * 




3:34 


-----------------------------------------------------------| 
-----------------------------------------------------------| 
-----------------------------------------------------------| 
------------------^---^--------------------------^---^-----| 
-1-0-0-1-4-1-0-1-0-1-0-1-0--0-1-0-1-0-1-4-1-0-1-0-1-0-1-0--| 
-1-0-0-1-4-1-0-1-0-1-0-1-0--0-1-0-1-0-1-4-1-0-1-0-1-0-1-0--| 
 * * * * * * * *            * * * * * * * * * *  


---------------------------------------------------------------| 
---------------------------------------------------------------| 
---------------------------------------------------------------| 
----------------------^---^--------------------------^---^-----| 
-0-1-0-1-0-1-4-1-0-1-0-1-0-1-0--0-1-0-1-0-1-4-1-0-1-0-1-0-1-0--| 
-0-1-0-1-0-1-4-1-0-1-0-1-0-1-0--0-1-0-1-0-1-4-1-0-1-0-1-0-1-0--| 
 * * * * * * * * * *            * * * * * * * * * * 

---------------------------------------------------------------| 
---------------------------------------------------------------| 
---------------------------------------------------------------| 
----------------------^---^--------------------------^---^-----| 
-0-1-0-1-0-1-4-1-0-1-0-1-0-1-0--0-1-0-1-0-1-4-1-0-1-0-1-0-1-0--| 
-0-1-0-1-0-1-4-1-0-1-0-1-0-1-0--0-1-0-1-0-1-4-1-0-1-0-1-0-1-0--| 
 * * * * * * * * * *            * * * * * * * * * * 

---------------------------------------------------------------| 
---------------------------------------------------------------| 
---------------------------------------------------------------| 
----------------------^---^--------------------------^---^-----| 
-0-1-0-1-0-1-4-1-0-1-0-1-0-1-0--0-1-0-1-0-1-4-1-0-1-0-1-0-1-0--| 
-0-1-0-1-0-1-4-1-0-1-0-1-0-1-0--0-1-0-1-0-1-4-1-0-1-0-1-0-1-0--| 
 * * * * * * * * * *            * * * * * * * * * * 



--------------------------------------------------------------| 
--------------------------------------------------------------| 
--------------------------------------------------------------| 
----------------------^---^--------------------------^---^----| 
-0-3-5-6-5-6-8-6-5-6-5-6-5-6-5--0-3-5-6-5-6-8-6-5-6-5-6-5-6-5-| 
-0-3-5-6-5-6-8-6-5-6-5-6-5-6-5--0-3-5-6-5-6-8-6-5-6-5-6-5-6-5-| 
 * * * * * * * * * *            * * * * * * * * * * 

--------------------------------------------------------------| 
--------------------------------------------------------------| 
--------------------------------------------------------------| 
----------------------^---^-----------------------------------| 
-0-3-5-6-5-6-8-6-5-6-5-6-5-6-5--0-3-5-6-5-6-8-6-5-6-5-6-5-6-5-| 
-0-3-5-6-5-6-8-6-5-6-5-6-5-6-5--0-3-5-6-5-6-8-6-5-6-5-6-5-6-5-| 
 * * * * * * * * * *            * * * * * * * * * * * * * * 





4:00 


----------------------------------------------------------------------| 
----------------------------------------------------------------------| 
---------------------------------------------8-8-8-8-8-7-7-7-7-3-3-3--| 
---------------------------------------------X-X-X-X-X-X-X-X-X-X-X-X--| 
------------------------------------------0--6-6-6-6-6-5-5-5-5-1-1-1--| 
0-/6~\-0-5~--\-0-6-6-8-5~--\-0-6~-\-0-5~--0---------------------------| 


--------------------------------------------------------------------| 
--------------------------------------------------------------------| 
-------------------------------------------8-8-8-8-8-7-7-7-7-3-3-3--| 
-------------------------------------------X-X-X-X-X-X-X-X-X-X-X-X--| 
----------------------------------------0--6-6-6-6-6-5-5-5-5-1-1-1--| 
-6~\-0-5~--\-0-6-6-8-5~--\-0-6~-\-0-5~--0---------------------------| 


L 
------------------------------------------------------------------------| 
------------------------------------------------------------------------| 
----8-8-8-8-8-7-7-7-7-14-14-14-----8-8-8-8-8-7-7-7-7-17-17-19-17-14-14--| 
----X-X-X-X-X-X-X-X-X--X--X--X-----X-X-X-X-X-X-X-X-X--X--X--X--X--X--X--| 
-0--6-6-6-6-6-5-5-5-5-12-12-12--0--6-6-6-6-6-5-5-5-5-15-15/17~15\12-12~-| 
-0------------------------------0---------------------------------------| 

R 
------------------------------------------------------------------------| 
------------------------------------------------------------------------| 
----8-8-8-8-8-7-7-7-7-14-14-14-----8-8-8-8-8-7-7-7-7--------------------| 
----X-X-X-X-X-X-X-X-X--X--X--X-----X-X-X-X-X-X-X-X-X--10-10/12~-10\7-7--| 
-0--6-6-6-6-6-5-5-5-5-12-12-12--0--6-6-6-6-6-5-5-5-5---X--X--X---X-X-X--| 
-0------------------------------0---------------------10-10/12~-10\7-7~-| 




4:24 

-------------------------------------------------------------| 
-------------------------------------------------------------| 
---_-----7-8----8-8-8-8-7-7-7----_-----7-8---10101010-7-7-7--| 
--/ \----5-6----X-X-X-X-X-X-X---/ \----5-6----X-X-X-X-X-X-X--| 
-6-5-0-6-5/6-0--6-6-6-6-5-5-5--6-5-0-6-5/6-0--8-8-8-8-5-5-5--| 
-6-5-0-6-----0-----------------6-5-0-6-----0-----------------| 



----------------------------------------------------------------| 
----------------------------------------------------------------| 
---_-----7-8----8-8-8-8-7-7-7-----------------------------------| 
--/ \----5-6----X-X-X-X-X-X-X--------------------------10101010-| 
-6-5-0-6-5/6-0--6-6-6-6-5-5-5---------------------------X-X-X-X-| 
-6-5-0-6-----0-----------------8-8-8-8-8-8-7-7-7-7-7-7-10101010-| 





-------------------------------------------------------------| 
-------------------------------------------------------------| 
---_-----7-8----8-8-8-8-7-7-7----_-----7-8---10101010-7-7-7--| 
--/ \----5-6----X-X-X-X-X-X-X---/ \----5-6----X-X-X-X-X-X-X--| 
-6-5-0-6-5/6-0--6-6-6-6-5-5-5--6-5-0-6-5/6-0--8-8-8-8-5-5-5--| 
-6-5-0-6-----0-----------------6-5-0-6-----0-----------------| 


---------------------------------------------------------------| 
---------------------------------------------------------------| 
---_-----7-8----8-8-8-8-7-7-7----------------------------------| 
--/ \----5-6----X-X-X-X-X-X-X----------------------------------| 
-6-5-0-6-5/6-0--6-6-6-6-5-5-5----------------------------------| 
-6-5-0-6-----0-----------------8-8-8-8-8-8-7-7-7-7-7-7-1-1-1-1-| 



-------------------------------------------------------------| 
-------------------------------------------------------------| 
---_-----7-8----8-8-8-8-7-7-7----_-----7-8---10101010-7-7-7--| 
--/ \----5-6----X-X-X-X-X-X-X---/ \----5-6----X-X-X-X-X-X-X--| 
-6-5-0-6-5/6-0--6-6-6-6-5-5-5--6-5-0-6-5/6-0--8-8-8-8-5-5-5--| 
-6-5-0-6-----0-----------------6-5-0-6-----0-----------------| 


----------------------------------------------------------------| 
----------------------------------------------------------------| 
---_-----7-8----8-8-8-8-7-7-7-----------------------------------| 
--/ \----5-6----X-X-X-X-X-X-X--------------------------10101010-| 
-6-5-0-6-5/6-0--6-6-6-6-5-5-5---------------------------X-X-X-X-| 
-6-5-0-6-----0-----------------8-8-8-8-8-8-7-7-7-7-7-7-10101010-| 




-------------------------------------------------------------| 
-------------------------------------------------------------| 
---_-----7-8----8-8-8-8-7-7-7----_-----7-8---10101010-7-7-7--| 
--/ \----5-6----X-X-X-X-X-X-X---/ \----5-6----X-X-X-X-X-X-X--| 
-6-5-0-6-5/6-0--6-6-6-6-5-5-5--6-5-0-6-5/6-0--8-8-8-8-5-5-5--| 
-6-5-0-6-----0-----------------6-5-0-6-----0-----------------| 


---------------------------------------------------------------| 
---------------------------------------------------------------| 
---_-----7-8----8-8-8-8-7-7-7----------------------------------| 
--/ \----5-6----X-X-X-X-X-X-X----------------------------------| 
-6-5-0-6-5/6-0--6-6-6-6-5-5-5----------------------------------| 
-6-5-0-6-----0-----------------8-8-8-8-8-8-7-7-7-7-7-7-1-1-1-1-| 


---------------------------------| 
---------------------------------| 
---------------------------------| 
---------------------------------| 
---------------------------------| 
-8-8-8-8-8-8-7-7-7-7-7-7-1-1-1-1-| 



---------------------------------------------| 
---------------------------------------------| 
---------------------------------5-5-5-5-----| 
---------------------------------X-X-X-X-----| 
---------------------------------3-3-3-3-----| 
-8-8-8-8-8-8-7-7-7-7-7-7-1-1-1-1-------------| 




5:05 

----------------------------------------------------| 
----------------------------------------------------| 
----------------------------------------------------| 
----__-----__----__---------__-----__----__---------| 
--^-)(---^-)(--^-)(-------^-)(---^-)(--^-)(--^---^--| 
-0-1----0-1---0-1-----0--0-1----0-1---0-1---0-1-0-1-| 



----------------------------------------------------------| 
----------------------------------------------------------| 
----------------------------------------------------------| 
----__-----__----__------------__-----__----__------------| 
--^-)(---^-)(--^-)(---^------^-)(---^-)(--^-)(--^---^---^-| 
-0-1----0-1---0-1----0-1-0--0-1----0-1---0-1---0-1-0-1-0-1| 





-------------------------------------------------------| 
-------------------------------------------------------| 
----__-----__----__------------__-----__----__---------| 
--^-)(---^-)(--^-)(---^------^-)(---^-)(--^-)(--^---^--| 
-0-1----0-1---0-1----0-1-0--0-1----0-1---0-1---0-1-0-1-| 
-0-1----0-1---0-1----0-1-0--0-1----0-1---0-1---0-1-0-1-| 



----------------------------------------------------| 
----------------------------------------------------| 
----__-----__----__------------__-----__----__------| 
--^-)(---^-)(--^-)(---^------^-)(---^-)(--^-)(--^---| 
-0-1----0-1---0-1----0-1-0--0-1----0-1---0-1---0-1-0| 
-0-1----0-1---0-1----0-1-0--0-1----0-1---0-1---0-1-0| 
	  

Full key step upFull key step up
Half key step upHalf key step up
Half key step downHalf key step down
Full key step downFull key step down
Search Paypal
auto scroll beats size up size down change color hide chords drawings
tab show chords e-chords YouTube Clip e-chords hide all tabs e-chords go to top tab