Slipknot

home > Slipknot

Sic (ver. 2) Tab

Slipknot

Difficulty: nolevelnolevel

by metaleiro%5F22

tuner correct add songbook print version text version save to e-mail
chordsukulelecavacokeyboardtabbassdrummharmonicsflute Guitar Pro
chords

Sic (ver. 2)

  		 
aeee galera essa musica eh muito manera eu adoro slipknot! 
 
a afinašao eh normal 
E||-------------------------||  
B||-------------------------||  
G||-------------------------||  
D||-2-2-2-2-2-2-2-2-2-2-2-3-||  
A||-2-2-2-2-2-2-2-2-2-2-2-3-||  
E||-0-0-0-0-0-0-0-0-0-0-0-1-||  
 
   
E||-------------------------||  
B||-------------------------||  
G||-------------------------||  
D||-2-2-2-2-2-2-2-2-2-2-2-3-||  
A||-2-2-2-2-2-2-2-2-2-2-2-3-||  
E||-0-0-0-0-0-0-0-0-0-0-0-1-||  
 
 
E||-------------------------||  
B||-------------------------||  
G||-------------------------||  
D||-2-2-4-3---2-2-4-3-------||  
A||-2-2-4-3---2-2-4-3-------||  
E||-0-0-2-1---0-0-2-1-------||  
 
 
E||-----------------------------||  
B||-----------------------------||  
G||-----------------------------||  
D||-----------------------------||  
A||-----------------------------||  
E||-8-7-7-8-7-8-7-8-7-8-10-8-7-8||  
 
  
E||----------------------------------------||  
B||----------------------------------------||  
G||----------------------------------------||  
D||10--9--9-10--9-10--9-10--9-10--12-10--9-||  
A||10--9--9-10--9-10--9-10--9-10--12-10--9-||  
E||-8--7--7--8--7--8--7--8--7--8--10--8--7-||  
 
  
E||-------------------------------------------||  
B||-------------------------------------------||  
G||-------------------------------------------||  
D||10--9--9-10--9X-10--9X-10--9X-10--12-10--9-||  
A||10--9--9-10--9X-10--9X-10--9X-10--12-10--9-||  
E||-8--7--7--8--7X-8---7X--8--7X--8--10--8--7-||  
 
  
E||---------------||  
B||---------------||  
G||---------------||  
D||---------------||  
A||10--9--9-10--9X||  
E||-8--7--7--8--7X||  
 
E||-------------||  ||-------------||    
B||-------------||  ||-------------||  
G||-------------||  ||-------------||  
D||-------------||  ||-------------||  
A||-------------||  ||-------------||  
E||13\11-12\9---||  ||-8\6-7\4-----||  
 
  
E||---------------||  
B||---------------||  
G||---------------||  
D||---------------||  
A||2-3~-1~-0-5~---||  
E||---------------||  
  
E||---------------||  
B||---------------||  
G||---------------||  
D||---------------||  
A||-3-2-1-0-------||  
E||---------------||  
 
  
E||---------------||  
B||---------------||  
G||---------------||  
D||---------------||  
A||---------------||  
E||-0-0-0-0-0-1---||  
 
 
E||---------------||  
B||---------------||  
G||---------------||  
D||1-3-1-5-1-3-1--||  
A||1-3-1-5-1-3-1--||  
E||0-1-0-3-0-1-0--||  
 
  
E||---------------||  
B||---------------||  
G||---------------||  
D||---------------||  
A||-4p2-2-2-2-2---||  
E||---------------||  
 

	  

Search Paypal
auto scroll beats size up size down change color hide chords drawings
tab show chords e-chords YouTube Clip e-chords hide all tabs e-chords go to top tab