Slipknot

home > Slipknot

(Sic) Best Version Tab

Slipknot

Difficulty: BeginnerBeginner

by joseaguilar%5F90

tuner correct add songbook print version text version save to e-mail
chordsukulelecavacokeyboardtabbassdrumsharmonicsflute Guitar Pro
chords

(Sic) Best Version

  		Slipknot (Sic) 
Drop B  

Intro 1 
|----------------------------|  
|----------------------------|  
|----------------------------| 4X  
|----------------------------|  
|0-0.0-0-0.0-0-0.0-0-0-1-|  
|-0-0.-0-0-0.-0-0-0.-0-0-0-1-|  

Intro 2 
|----------------------------------|  
|----------------------------------|  
|----------------------------------| 4X  
|----------------------------------|  
|0-0.0-0-0-0.0-0-0-0.0-0-0-0-1-|  
|-0-0.-0-0-0-0.-0-0-0-0.-0-0-0-0-1-|  

Bridge 1 
|----|  
|----|  
|----|  
|----|  
|0.-|  
|-0.-|  

Intro 3 
|--------------------------------|  
|--------------------------------|  
|--------------------------------| 4X  
|--------------------------------|  
|2-1-0-0-0.0-0-2-1-0-0-0-0-0-0-|  
|-2-1-0-0-0.-0-0-2-1-0-0-0-0-0-0-|  

Bridge 2 
|-----------------------------------|  
|-----------------------------------|  
|-----------------------------------| 
|-----------------------------------|  
|----------------------------------|  
|-1-0-0-1-0--1-0--1-0-1-0-1-4-3-6-0-|  

Bridge 2 
|-----------------------------------|  
|-----------------------------------|  
|-----------------------------------|  
|-----------------------------------|  
|----------------------------------|  
|-1-0-0-1-0--1-0--1-0-1-0-1-4-3-6-0-|  

Bridge 3 
|-------------------------------|  
|-------------------------------|  
|-------------------------------| 
|-------------------------------|  
|------------------------------|  
|-1-0--1-0--1-0--1-0-1-4-3-6-0-|  

Verse 1 
|-------------------------------|  
|-------------------------------|  
|-------------------------------| 4X  
|-------------------------------|  
|-1-0-0-1-0.1-0.1-0-1-4-3-6-0-|  
|-1-0-0-1-0.-1-0.-1-0-1-4-3-6-0-|  



Bridge 2 
|-----------------------------------|  
|-----------------------------------|  
|-----------------------------------| 3x 
|-----------------------------------|  
|----------------------------------|  
|-1-0-0-1-0--1-0--1-0-1-0-1-4-3-6-0-|  

Bridge 4 
|-----------------|  
|-----------------|  
|-----------------| 
|-----------------|  
|----------------|  
|-1-0-0-1-0--1-0.-|  

Verse 2 
|-----------------|  
|-----------------|  
|-----------------| 4X  
|-4tr-2tr-3tr-1tr-|  
|-----------------|  
|-----------------|  

Bridge 5 
|-------------------------------|  
|-------------------------------|  
|-------------------------------| 3x 
|-------------------------------|  
|----------------1-0-1-4-3-6-0-|  
|-1-0-0-1-0--1-0--1-0-1-4-3-6-0-|  

Verse 1 
|-------------------------------|  
|-------------------------------|  
|-------------------------------| 4X  
|-------------------------------|  
|-1-0-0-1-0.1-0.1-0-1-4-3-6-0-|  
|-1-0-0-1-0.-1-0.-1-0-1-4-3-6-0-|  

Verse 3 
|--------------------------------|  
|--------------------------------|  
|--------------------------------| 3X  
|--------------------------------|  
|-1-0--0-1-0--1-0--1-0-1-4-3-6-0-|  
|-1-0--0-1-0--1-0--1-0-1-4-3-6-0-|  

Bridge 6 
|-----------------|  
|-----------------|  
|-----------------|  
|-----------------|  
|-1-0-0-1-0--1-0.-|  
|-1-0-0-1-0--1-0.-|  

Verse 2 
|-----------------|  
|-----------------|  
|-----------------| 4X  
|-4tr-2tr-3tr-1tr-|  
|-----------------|  
|-----------------|  




Verse 4 
|-----------------------------------------------------------------|  
|-----------------------------------------------------------------|  
|-----------------------------------------------------------------|  
|-7-------8--------7-----8--------7-------8--------7-----8--------|  
|-5-6-0-0-6-7~-0-0-5-0-0-6-7~-0-0-5-6-0-0-6-7~-0-0-5-0-0-6-6~-0-0-|  
|-----------------------------------------------------------------|  
Verse 5 
|---------------------|  
|---------------------|  
|---------------------| 3x 
|-7-8-7-8-------------|  
|-5-6-5-6-6-6--6--6-6-|  
|---------6-6--6--6-6-|  

Verse 6 
|--------------|  
|--------------|  
|--------------| 
|-7-8-7-8/11-7-|  
|-5-6-5-6/-9---|  
|--------------|  

Bridge 7 
|---------------------|  
|---------------------|  
|---------------------| 3x  
|---------------------|  
|-0.-0.-0.-0.-0.-0.-1-|  
|-0.-0.-0.-0.-0.-0.-1-|  

Bridge 8 
|----------------------|  
|----------------------|  
|----------------------| 
|----------------------|  
|-0.-0.-0.-0.-0.-0.-0.-|  
|-0.-0.-0.-0.-0.-0.-0.-|  

Verse7 
|-------------------|  
|-------------------|  
|-------------------| 4x 
|----------3--------|  
|-0--3--2--1--0-3-2-|  
|-0--3--2-----0-3-2-|  

Bridge 7 
|---------------------|  
|---------------------|  
|---------------------| 3x  
|---------------------|  
|-0.-0.-0.-0.-0.-0.-1-|  
|-0.-0.-0.-0.-0.-0.-1-|  

Bridge 8 
|----------------------|  
|----------------------|  
|----------------------| 
|----------------------|  
|-0.-0.-0.-0.-0.-0.-0.-|  
|-0.-0.-0.-0.-0.-0.-0.-|  






Outro 1 
|-------------------------------|  
|-------------------------------|  
|-------------------------------| 8x 
|-------------------------------|  
|5-2-1-2-1-0--5-2-1-2-1-5-2-1-0|  
|-------------------------------|  

Bridge 8 
|-------------|  
|-------------|  
|-------------| 5x 
|-------------|  
|-------------|  
|-0-3-2-1-4-0-|  

	  

Full key step upFull key step up
Half key step upHalf key step up
Half key step downHalf key step down
Full key step downFull key step down
Search Paypal
auto scroll beats size up size down change color hide chords drawings
tab show chords e-chords YouTube Clip e-chords hide all tabs e-chords go to top tab