Slipknot

home > Slipknot

Nomadic Tab

Slipknot

Difficulty: IntermediateIntermediate

by gustsilva

tuner correct add songbook print version text version save to e-mail
chordsukulelecavacokeyboardtabbassdrumsharmonicsflute Guitar Pro
chords

Nomadic

Key:  B More
Nomadic Key F#F#
Nomadic Key GG
Nomadic Key G#G#
Nomadic Key AA(one step down)
Nomadic Key A#A#(half step down)
Nomadic Key BB(original key)
Nomadic Key CC(half step up)
Nomadic Key C#C#(one step up)
Nomadic Key DD
Nomadic Key D#D#
Nomadic Key EE
Nomadic Key FF
  		SLIPKNOT  

NOMADIC 


B-F#-B-E-G#-C# 


TABBED BY andherembrace 






------------------------------------------------------------| 
------------------------------------------------------------| 
------------------------------------------------------------| 
------------------------------------------------------------| 
----------------1-------------2---------------3----------)(-| 
\-1-1-0---0-1-2---1-0---0-1-2---1-0---0-1-2-3---3-2-1-0-1---| 
        |             |             |              

------------------------------------------------------| 
------------------------------------------------------| 
------------------------------------------------------| 
------------------------------------------------------| 
----------------1-----------------------3----------)(-| 
\-1-1-0---0-1-2---1-0---0-1-2-000-000-3---3-2-1-0-1---| 
        |             |       *** *** 






0:10 


------------------------------------------------------------| 
------------------------------------------------------------| 
------------------------------------------------------------| 
------------------------------------------------------------| 
--1-1-0---------1---0---------2---0-----------3----------)(-| 
--1-1-0---0-1-2---1-0---0-1-2---1-0---0-1-2-3---3-2-1-0-1---| 


------------------------------------------------------------| 
------------------------------------------------------------| 
------------------------------------------------------------| 
------------------------------------------------------------| 
--1-1-0---------1---0---------2---0-----------3----------)(-| 
--1-1-0---0-1-2---1-0---0-1-2---1-0---0-1-2-3---3-2-1-0-1---| 







---------------------------------------------------------------------| 
---------------------------------------------------------------------| 
---------------------------------------------------------------------| 
---------------------------------------------------------------------| 
-1-1-0---------3-3-0---------1-1-0----3-3-0----1-1-0---3----------)(-| 
-1-1-0---------3-3-0---------1-1-0----3-3-0----1-1-0-----3-2-1-0-1---| 
       |             |             |        |        | 




0:32 


------------------------------------------------------------| 
------------------------------------------------------------| 
------------------------------------------------------------| 
------------------------------------------------------------| 
----------------1-------------2---------------3----------)(-| 
--1-1-0---0-1-2---1-0---0-1-2---1-0---0-1-2-3---3-2-1-0-1---| 
        |             |             |              


------------------------------------------------------------| 
------------------------------------------------------------| 
------------------------------------------------------------| 
------------------------------------------------------------| 
----------------1-------------2---------------3----------)(-| 
--1-1-0---0-1-2---1-0---0-1-2---1-0---0-1-2-3---3-2-1-0-1---| 
        |             |             |              





0:42 




R GTR PLAYS 6TH+ 5TH STRINGS ONLY ON POWER CHRDS 

--------------------------------------------------------| 
--------------------------------------------------------| 
--------------------------------------------------------| 
-1--1--1------------------7--7--7-----------------------| 
-1--1--1------------------7--7--7-----------------------| 
-1--1--1-5555444477775555-7--7--7-88887777101010108888--| 


-------------------------------------| 
-------------------------------------| 
-------------------------------------| 
-1--1--1------------------7--7--7-7--| 
-1--1--1------------------7--7--7-7--| 
-1--1--1-5555444477775555-7--7--7-7--| 








0:53 


-------------------------------------------------------------------| 
-------------------------------------------------------------------| 
-------------------------------------------------------------------| 
-------------------------------------------------------------------| 
-----------------------------------------------------7------7------| 
-15\-0-0-0-0-0-0-4-5-6-6-6-6-6-6-5-6-7-7-7-7-7-7-7-7-8-0000-8-15\--| 
                                                       **** 


----------------------------------------------------------------| 
----------------------------------------------------------------| 
----------------------------------------------------------------| 
----------------------------------------------------------------| 
--------------------------------------------------7------7------| 
--0-0-0-0-0-0-4-5-6-6-6-6-6-6-5-6-7-7-7-7-7-7-7-7-8-0000-8-15\--| 
                                                    **** 


---------------------------------------------------------| 
---------------------------------------------------------| 
---------------------------------------------------------| 
---------------------------------------------------------| 
-0--0--0------1--1--1------8-8-8-8-8-8-8-8-7------7------| 
-0--0--0--15\-1--1--1--6-7-8-8-8-8-8-8-8-8-8-0000-8-15\--| 
                                             **** 



----------------------------------------------------------------| 
----------------------------------------------------------------| 
-14-------------------------------------------------------------| 
--X-------------------------------------------------------------| 
-12-----------------------------------------------7------7------| 
--------------4-5-6-6-6-6-6-6-5-6-7-7-7-7-7-7-7-7-8-0000-8-15\--| 
                                                    **** 

R 
----------------------------------------------------------------| 
----------------------------------------------------------------| 
----------------------------------------------------------------| 
----------------------------------------------------------------| 
--------------------------------------------------7------7------| 
--0-0-0-0-0-0-4-5-6-6-6-6-6-6-5-6-7-7-7-7-7-7-7-7-8-0000-8-15\--| 
                                                    **** 




1:14 



------------------------------------------------------------| 
------------------------------------------------------------| 
------------------------------------------------------------| 
------------------------------------------------------------| 
----------------1-------------2---------------3-2-1-0-----1-| 
--1-1-0---0-1-2---1-0---0-1-2---1-0---0-1-2-3---------3-2-1-| 
        |             |             |              




1 
-------------------------------------------------------------| 
-------------------------------------------------------------| 
-------------------------------------------------------------| 
-------------------------------------------------------------| 
----------------1-------------2---------------3----------)(--| 
--1-1-0---0-1-2---1-0---0-1-2---1-0---0-1-2-3---3-2-1-0-1----| 
        |             |             |              
2 
-------------------------------------------------------------| 
///-----------------------------------------------------///--| 
-7-----------------------------------------------------/14---| 
-------------------------------------------------------------| 
-------------------------------------------------------------| 
-------------------------------------------------------------| 


1 
------------------------------------------------------------| 
------------------------------------------------------------| 
------------------------------------------------------------| 
------------------------------------------------------------| 
----------------1-------------2---------------3----------^--| 
--1-1-0---0-1-2---1-0---0-1-2---1-0---0-1-2-3---3-2-1-0-1-0-| 
        |             |             |              

2 
-------------------------------------------------///---///---| 
///-----------------------------------------------15---16----| 
-7-----------------------------------------------------------| 
-------------------------------------------------------------| 
-------------------------------------------------------------| 
-------------------------------------------------------------| 







1:32 

-------------------------------------------------------------------| 
-------------------------------------------------------------------| 
-------------------------------------------------------------------| 
-------------------------------------------------------------------| 
--^---------------1---------------2-----------------3----------)(--| 
-1-0-0-0-0-0-1-2----0-0-0-0-0-1-2---0-0-0-0-0-1-2-3---3-2-1-0-1----| 
     * * * *          * * * *         * * * * 

-------------------------------------------------------------------| 
-------------------------------------------------------------------| 
-------------------------------------------------------------------| 
-------------------------------------------------------------------| 
--^---------------1---------------2-----------------3--------------| 
-1-0-0-0-0-0-1-2----0-0-0-0-0-1-2---0-0-0-0-0-1-2-3---3-2-1-0-1-/-\| 
     * * * *          * * * *         * * * * 





1:42 



R GTR PLAYS 6TH+ 5TH STRINGS ONLY ON POWER CHRDS 

--------------------------------------------------------| 
--------------------------------------------------------| 
--------------------------------------------------------| 
-1--1--1------------------7--7--7-----------------------| 
-1--1--1------------------7--7--7-----------------------| 
-1--1--1-5555444477775555-7--7--7-88887777101010108888--| 


-------------------------------------| 
-------------------------------------| 
-------------------------------------| 
-1--1--1------------------7--7--7-7--| 
-1--1--1------------------7--7--7-7--| 
-1--1--1-5555444477775555-7--7--7-7--| 





1:54 


-------------------------------------------------------------------| 
-------------------------------------------------------------------| 
-------------------------------------------------------------------| 
-------------------------------------------------------------------| 
-----------------------------------------------------7------7------| 
-15\-0-0-0-0-0-0-4-5-6-6-6-6-6-6-5-6-7-7-7-7-7-7-7-7-8-0000-8-15\--| 
                                                       **** 


----------------------------------------------------------------| 
----------------------------------------------------------------| 
----------------------------------------------------------------| 
----------------------------------------------------------------| 
--------------------------------------------------7------7------| 
--0-0-0-0-0-0-4-5-6-6-6-6-6-6-5-6-7-7-7-7-7-7-7-7-8-0000-8-15\--| 
                                                    **** 



---------------------------------------------------------| 
---------------------------------------------------------| 
---------------------------------------------------------| 
---------------------------------------------------------| 
-0--0--0------1--1--1------8-8-8-8-8-8-8-8-7------7------| 
-0--0--0--15\-1--1--1--6-7-8-8-8-8-8-8-8-8-8-0000-8-15\--| 
                                             **** 



----------------------------------------------------------------| 
----------------------------------------------------------------| 
-14-------------------------------------------------------------| 
--X-------------------------------------------------------------| 
-12-----------------------------------------------7------7------| 
--------------4-5-6-6-6-6-6-6-5-6-7-7-7-7-7-7-7-7-8-0000-8-15\--| 
                                                    **** 

R 
----------------------------------------------------------------| 
----------------------------------------------------------------| 
----------------------------------------------------------------| 
----------------------------------------------------------------| 
--------------------------------------------------7------7------| 
--0-0-0-0-0-0-4-5-6-6-6-6-6-6-5-6-7-7-7-7-7-7-7-7-8-0000-8-15\--| 
                                                    **** 





2:14 



--------------------------------------------------| 
--------------------------------------------------| 
--------------------------------------------------| 
---------_-----------_-----------_----------------| 
--^-----/ \---^-----/ \---^-----/ \----3--^---^---| 
-1-0---0-1-2-1-0---0-1-2-1-0---0-1-2-3---3-2-1-0--| 


--------------------------------------------------| 
--------------------------------------------------| 
--------------------------------------------------| 
---------_-----------_-----------_----------------| 
--^-----/ \---^-----/ \---^-----/ \----3--^---^---| 
-1-0---0-1-2-1-0---0-1-2-1-0---0-1-2-3---3-2-1-0--| 


--------------------------------------------------| 
--------------------------------------------------| 
--------------------------------------------------| 
---------_-----------_-----------_----------------| 
--^-----/ \---^-----/ \---^-----/ \----3--^---^---| 
-1-0---0-1-2-1-0---0-1-2-1-0---0-1-2-3---3-2-1-0--| 


--------------------------------------------------| 
--------------------------------------------------| 
--------------------------------------------------| 
---------_-----------_-----------_----------------| 
--^-----/ \---^-----/ \---^-----/ \----3--^---^---| 
-1-0---0-1-2-1-0---0-1-2-1-0---0-1-2-3---3-2-1-0--| 







RYTHM THRU SOLO 
2:30-2:52 

-------------------------------------------------------------------------------| 
-------------------------------------------------------------------------------| 
-------------------------------------------------------------------------------| 
-------------------------------------------------------------------------------| 
-4-4------4-4------5-5-4-4------4-4------5-5-4-4------4-4------5-5-4-4------4--| 
-4-4-4444-4-4-4444-5-5-4-4-4444-4-4-4444-5-5-4-4-4444-4-4-4444-5-5-4-4-4444-4--| 
     ****     ****         ****     ****         ****     ****         ****     

-------------------------------------| 
-------------------------------------| 
-------------------------------------| 
-------------------------------------| 
-4-4------4-2-3-4-3-2-1-2-3-4-3-2-1--| 
-4-4-4444-4-2-3-4-3-2-1-2-3-4-3-2-1--| 
     ****   * * * * * * * * * * * *  



-------------------------------------------------------------------------------| 
-------------------------------------------------------------------------------| 
-------------------------------------------------------------------------------| 
-------------------------------------------------------------------------------| 
-4-4------4-4------5-5-4-4------4-4------5-5-4-4------4-4------5-5-4-4------4--| 
-4-4-4444-4-4-4444-5-5-4-4-4444-4-4-4444-5-5-4-4-4444-4-4-4444-5-5-4-4-4444-4--| 
     ****     ****         ****     ****         ****     ****         ****     

--------------------------| 
--------------------------| 
--------------------------| 
--------------------------| 
-4-4------4-2-3-4-3-2-1---| 
-4-4-4444-4-2-3-4-3-2-1---| 
     ****   * * * * * *  





2:30 
                                __                                             __ 
                               /  \                                           /  \ 
---------------^-------------13-16-13-------------------------^-------------13-16-13----------| 
-----12------15-12------^--15--------15-------------12------15-12------^--15--------15--------| 
---13--13--13-----13--13-16------------16-13------13--13--13-----13--13-16------------16-13---| 
-15------15---------15-----------------------15-15------15---------15----------------------15-| 
----------------------------------------------------------------------------------------------| 
----------------------------------------------------------------------------------------------| 
                                __                                            __ 
                               /  \                                          /  \ 
---------------^-------------16-19-16--------------------------------------16-19-16-----------| 
-----15------18-15---------18--------18------------15------18-15------^--18--------18---------| 
---16--16--16-----16--16-19------------19-16-----16--16--16-----16--16-19------------19-16----| 
-18------18---------18----------------------18-18------18---------18----------------------18--| 
----------------------------------------------------------------------------------------------| 
----------------------------------------------------------------------------------------------| 
2:36 


--------------------------------------------------------------------------------| 
---)---(----)()()()(------)---(----)()()(------///-GRAD BENDS-TO 19 EQUIVELENT--| 
-20------18-------------22-------19------\-----16-------------------------------| 
--------------------------------------------------------------------------------| 
--------------------------------------------------------------------------------| 
--------------------------------------------------------------------------------| 


2:42 


        )(          )(     ^           ^    
------16----------19--17-19-17-16/17-21-17-16-----------__----------| 
/14-17----17-14-17---------------------------17--------/  \---------| 
-----------------------------------------------16\14-13/14\13~~~~\--| 
--------------------------------------------------------------------| 
--------------------------------------------------------------------| 
--------------------------------------------------------------------| 

      __         __          __          __ 
     /  \       /  \        /  \        /  \ 
---17-21-17---17-21-17----17-21-17----17-21-17----| 
/19---------19----------19----------19---------19-| 
--------------------------------------------------| 
--------------------------------------------------| 
--------------------------------------------------| 
--------------------------------------------------| 

       __          __          __          __ 
      /  \        /  \        /  \        /  \ 
----16-19-16----16-19-16----16-19-16----16-19-16-----| 
-17----------17----------17----------17----------17--| 
-----------------------------------------------------| 
-----------------------------------------------------| 
-----------------------------------------------------| 
-----------------------------------------------------| 

     __          __          __          __ 
    /  \        /  \        /  \        /  \ 
--14-17-14----14-17-14----14-17-14----14-17-14---14-\-| 
15---------15----------15----------15---------15------| 
------------------------------------------------------| 
------------------------------------------------------| 
------------------------------------------------------| 
------------------------------------------------------| 

       ______________ 
      /              \             ____________ 
----10-12-14-12-10-12-10---10\9---/            \-----------| 
-12---------------------14------10-12-10-9-10-9-10---------| 
---------------------------------------------------11~-----| 
-----------------------------------------------------------| 
-----------------------------------------------------------| 
-----------------------------------------------------------| 






2:52 



---------------------------------------------------------| 
---------------------------------------------------------| 
---------------------------------------------------------| 
---------------------------------------------------------| 
-4-4-------------------------4-4-------------------------| 
-4-4-4-6-5-0-4-3-0-5-4-0-3-0-4-4-4-6-5-0-4-3-0-5-4-0-3-0-| 


--------------------------------------------------| 
--------------------------------------------------| 
--------------------------------------------------| 
--------------------------------------------------| 
-4-4-------------------------4-4---------2--5--3--| 
-4-4-4-6-5-0-4-3-0-5-4-0-3-0-4-4-4-6-5-0-2--5--3--| 





3:03 


-------------------------------------------------------------| 
-------------------------------------------------------------| 
-------------------------------------------------------------| 
-------------------------------------------------------------| 
-4-----------------------------4-----------------------------| 
-4-4-4-4-6-5-0-4-3-0-5-4-0-3-0-4-4-4-4-6-5-0-4-3-0-5-4-0-3-0-| 
   * * *                         * * * 


------------------------------------------------------| 
------------------------------------------------------| 
------------------------------------------------------| 
------------------------------------------------------| 
-4-----------------------------4-------------2--5--3--| 
-4-4-4-4-6-5-0-4-3-0-5-4-0-3-0-4-4-4-4-6-5-0-2--5--3--| 
   * * *                         * * * 







-----------------------------------------------------| 
-----------------------------------------------------| 
-----------------------------------------------------| 
-1--1--1------------------7--7--7--------------------| 
-1--1--1------------------7--7--7--------------------| 
-1--1--1-5555444477775555-7--7--7-8-7-10-7-8-7-10-7--| 
                                  * *  * * * *  * * 

------------------------------------------------| 
------------------------------------------------| 
------------------------------------------------| 
-1--1--1----------------------------------------| 
-1--1--1--------------------------------------7-| 
-1--1--1-555544447777555510101010888877778888-7-| 






-------------------------------------------------------------------| 
-------------------------------------------------------------------| 
-------------------------------------------------------------------| 
-------------------------------------------------------------------| 
-----------------------------------------------------7------7------| 
-15\-0-0-0-0-0-0-4-5-6-6-6-6-6-6-5-6-7-7-7-7-7-7-7-7-8-0000-8-15\--| 
                                                       **** 


----------------------------------------------------------------| 
----------------------------------------------------------------| 
----------------------------------------------------------------| 
----------------------------------------------------------------| 
--------------------------------------------------7------7------| 
--0-0-0-0-0-0-4-5-6-6-6-6-6-6-5-6-7-7-7-7-7-7-7-7-8-0000-8-15\--| 
                                                    **** 


---------------------------------------------------------------| 
---------------------------------------------------------------| 
---------------------------------------------------------------| 
---------------------------------------------------------------| 
-0-0-0-0-0-0-0-0-1-1-1-1-1-1-1-1-8-8-8-8-8-8-8-8-7------7------| 
-0-0-0-0-0-0-0-0-1-1-1-1-1-1-1-1-8-8-8-8-8-8-8-8-8-0000-8-15\--| 
 * * * * * * * * * * * * * * * * * * * * * * * *   **** 


L 
----------------------------------------------------------------| 
----------------------------------------------------------------| 
-14-------------------------------------------------------------| 
--X-------------------------------------------------------------| 
-12-----------------------------------------------7------7------| 
--------------4-5-6-6-6-6-6-6-5-6-7-7-7-7-7-7-7-7-8-0000-8-15\--| 
                                                    **** 

R 
----------------------------------------------------------------| 
----------------------------------------------------------------| 
----------------------------------------------------------------| 
----------------------------------------------------------------| 
--------------------------------------------------7------7------| 
--0-0-0-0-0-0-4-5-6-6-6-6-6-6-5-6-7-7-7-7-7-7-7-7-8-0000-8-15\--| 
                                                    **** 





3:45 


-------------------------------------------------------------------| 
-------------------------------------------------------------------| 
-------------------------------------------------------------------| 
-------------------------------------------------------------------| 
--^---------------1---------------2-----------------3----------)(--| 
-1-0-0-0-0-0-1-2----0-0-0-0-0-1-2---0-0-0-0-0-1-2-3---3-2-1-0-1----| 
     * * * *          * * * *         * * * * 

-------------------------------------------------------------------| 
-------------------------------------------------------------------| 
-------------------------------------------------------------------| 
-------------------------------------------------------------------| 
--^---------------1---------------2-----------------3----------)(--| 
-1-0-0-0-0-0-1-2----0-0-0-0-0-1-2---0-0-0-0-0-1-2-3---3-2-1-0-1----| 
     * * * *          * * * *         * * * * 




3:55 

------------------------------------------------------------| 
------------------------------------------------------------| 
------------------------------------------------------------| 
------------------------------------------------------------| 
----------------1-------------2---------------3----------)(-| 
--1-1-0---0-1-2---1-0---0-1-2---1-0---0-1-2-3---3-2-1-0-1---| 


------------------------------------------------------------| 
------------------------------------------------------------| 
------------------------------------------------------------| 
------------------------------------------------------------| 
----------------1-------------2---------------3----------)(-| 
--1-1-0---0-1-2---1-0---0-1-2---1-0---0-1-2-3---3-2-1-0-1---| 



------------------------------------------------------------| 
------------------------------------------------------------| 
------------------------------------------------------------| 
------------------------------------------------------------| 
----------------1-------------2---------------3----------)(-| 
--1-1-0---0-1-2---1-0---0-1-2---1-0---0-1-2-3---3-2-1-0-1---| 


------------------------------------------------------------| 
------------------------------------------------------------| 
------------------------------------------------------------| 
------------------------------------------------------------| 
----------------1-------------2---------------3---------1-0-| 
--1-1-0---0-1-2---1-0---0-1-2---1-0---0-1-2-3---3-2-1-0-1-0-| 
	  

Full key step upFull key step up
Half key step upHalf key step up
Half key step downHalf key step down
Full key step downFull key step down
Search Paypal
auto scroll beats size up size down change color hide chords drawings
tab show chords e-chords YouTube Clip e-chords hide all tabs e-chords go to top tab