Slipknot

home > Slipknot

New Abortion Tab

Slipknot

Difficulty: nolevelnolevel

by VELHO

tuner correct add songbook print version text version save to e-mail
chordsukulelecavacokeyboardtabbassdrumsharmonicsflute Guitar Pro
chords

New Abortion

  		Afinação(A,E,A,D,F#,B) 


B |-------------------------------------------------------------------------------- 
F#|-------------------------------------------------------------------------------- 
D |-------------------------------------------------------------------------------- 
A |-0-0-0-------------------------------------------------------------------------- 
E |-0-0-0-------------------------------------------------------------------------- 
A |-0-0-0---0-0-0-0--0-0-0-0--0-0-0-0--0-0-0-0--0-0-0-0--0-0-0-0--0-0-0-0--0-0-0-0- 



--------------------------------------------------- 
--------------------------------------------------- 
--------------------------------------------------- 
---------------------------------------------------  
--------------------------------------------------- 
-0-0-1-0-2h3-0-1--0-0-1h2-0-0-6p5------------------ 


------------------------------------------- 
------------------------------------------- 
------------------------------------------- 
-0-0-0--0-0-0--0-0-0--0-0-0----------------  
-0-0-0--0-0-0--0-0-0--0-0-0---------------- 
-0-0-0--0-0-0--0-0-0--0-0-0---------------- 


--------------------------------------------------- 
--------------------------------------------------- 
--------------------------------------------------- 
---------------------------------------------------  
-0-0-1-0-2h3-0-1--0-0-1h2-0-0-6p5------------------ 
-0-0-1-0-2h3-0-1--0-0-1h2-0-0-6p5------------------ 

--------------------------------------------- 
--------------------------------------------- 
-*14B*--*12B*-------------------------------- 4x com delay na ultima vez.  
--------------------------------------------- 
--------------------------------------------- 
--------------------------------------------- 


--------------------------------------------------- 
--------------------------------------------------- 
--------------------------------------------------- 
-0-0-1-0-2h3-0-1--0-0-1h2-0-0-6p5------------------  
--------------------------------------------------- 
--------------------------------------------------- 

-----------------------------|------------------------------- 
-----------------------------|------------------------------- 
-----------------------------|------------------------------- 
-----------------------------|------------------------------- 
-----------------------------|------------------------------- 
*2RB* *2RB*-*2RB* *2RB*------|-*2BR*--*2BR*--*2BR*--*2BR*---- 



---------------------------------- 
---------------------------------- 
---------------------------------- 
-5---3---2--0--------------------- 
-5---3---2--0--------------------- 
-5---3---2--0---------------------  


----------------------------- 
----------------------------- 
----------------------------- 
-5-5-5-5-5-5-5-5-5-5-5-5-5--- 
----------------------------- 
----------------------------- 


--------------------------------------- 
--------------------------------------- 
--------------------------------------- 
-2-1-0---0-2-0-3-0-4------------------- 
-2-1-0---0-2-0-3-0-4------------------- 
-2-1-0---0-2-0-3-0-4------------------- 

--------------------------------------- 
--------------------------------------- 
--------------------------------------- 
-2-1-0---0-2-0-3-0-4------------------- 
-2-1-0---0-2-0-3-0-4------------------- 
-2-1-0---0-2-0-3-0-4------------------- 

----------------------------------------------------- 
----------------------------------------------------- 
----------------------------------------------------- 
----------------------------------------------------- 
----------------------------------------------------- 
-2-1-0-4-5-4-0-*2BR*--------------------------------- 


--------------------------------- 
--------------------------------- 
--------------------------------- 
-2-1-0-4-5-4---0-5-6------------- 
-2-1-0-4-5-4---0-5-6------------- 
-2-1-0-4-5-4---0-5-6------------- 
	  

Search Paypal
auto scroll beats size up size down change color hide chords drawings
tab show chords e-chords YouTube Clip e-chords hide all tabs e-chords go to top tab