Slipknot

home > Slipknot

Nero Forte Tab

Slipknot

Difficulty: nolevelnolevel

by VsWorld

tuner correct add songbook print version text version save to e-mail
chordsukulelecavacokeyboardtabbassdrumsharmonicsflute Guitar Pro
chords

Nero Forte

  		Intro 1 
C#|---------------------------------------------| 
G#|---------------------------------------------| 
E |---------------------------------------------|(x12) 
B |-16-0-16-0--------------------13-0-13-0------| 
F#|---------------------------------------------| 
B |-----------0M-0M-0M-0M-0M-0M-----------0M-0M-| 

Intro 2 + pre-verse 
C#|-------------------------------------------| 
G#|-------------------------------------------| 
E |-------------------------------------------|(x8) 
B |-------------------------------------------| 
F#|-------------------------------------------| 
B |-1-0-0M-0M-0M-0M-0M-0M-0M-0M-1-0-1-0-0M-0M-| 

verse 1(x2) 
C#|-------------------------------------------| 
G#|-------------------------------------------| 
E |-------------------------------------------|(x2) 
B |-------------------------------------------| 
F#|-------------------------------------------| 
B |-1-0-0M-0M-0M-0M-0M-0M-0M-0M-1-0-1-0-0M-0M-| 

C#|-----------------------------------------| 
G#|-----------------------------------------| 
E |-----------------------------------------| 
B |-----------------------------------------| 
F#|-----------------------------------------| 
B |-8-5-5M-5M-5M-5M-8-5-8-5-5M-5M-5M-5M-8-5-| 

C#|---------------------------------------------| 
G#|---------------------------------------------| 
E |---------------------------------------------| 
B |---------------------------------------------| 
F#|---------------------------------------------| 
B |-10-7-7M-7M-7M-7M-10-7-10-7-7M-7M-7M-7M-10-7-| 

Fill 
C#|-----------------|-----------------| 
G#|-----------------|-----------------| 
E |-----------------|-----------------| 
B |-----7-5~~~~~~~~~|/5~~~~~7~~~~~~~--| 
F#|-5-7-------------|-----------------| 
B |-----------------|---------------\0| 

Then do the verse and the fill again 

Chorus(x2) 
C#|------------------------|-----------------------| 
G#|------------------------|-----------------------| 
E |------------------------|-----------------------|(x3) 
B |------------------------|-----------------------| 
F#|-0-0M-0M-3-3M-3M-11-11M-|11M-8-8M-8-8-11-11-11--| 
B |-0-0M-0M-3-3M-3M-11-11M-|11M-8-8M-8-8-11-11-11--| 

C#|----------------------|---------------------| 
G#|----------------------|---------------------| 
E |----------------------|---------------------| 
B |----------------------|---------------------| 
F#|12-12-12-8-8-8-11-11M-|11M-4-4-4M-3-3M-1-1M-| 
B |12-12-12-8-8-8-11-11M-|11M-4-4-4M-3-3M-1-1M-| 

Interlude + pre-verse 
C#|---------------------------------------------| 
G#|---------------------------------------------| 
E |---------------------------------------------|(x4) 
B |-16-0-16-0--------------------13-0-13-0------| 
F#|---------------------------------------------| 
B |-----------0M-0M-0M-0M-0M-0M-----------0M-0M-| 

C#|-------------------------------------------| 
G#|-------------------------------------------| 
E |-------------------------------------------|(x2) 
B |-------------------------------------------| 
F#|-------------------------------------------| 
B |-1-0-0M-0M-0M-0M-0M-0M-0M-0M-1-0-1-0-0M-0M-| 

verse 2(x2) 
C#|-------------------------------------------| 
G#|-------------------------------------------| 
E |-------------------------------------------|(x2) 
B |-------------------------------------------| 
F#|-------------------------------------------| 
B |-1-0-0M-0M-0M-0M-0M-0M-0M-0M-1-0-1-0-0M-0M-| 

C#|-----------------------------------------| 
G#|-----------------------------------------| 
E |-----------------------------------------| 
B |-----------------------------------------| 
F#|-----------------------------------------| 
B |-8-5-5M-5M-5M-5M-8-5-8-5-5M-5M-5M-5M-8-5-| 

C#|---------------------------------------------| 
G#|---------------------------------------------| 
E |---------------------------------------------| 
B |---------------------------------------------| 
F#|---------------------------------------------| 
B |-10-7-7M-7M-7M-7M-10-7-10-7-7M-7M-7M-7M-10-7-| 

Fill 
C#|-----------------|-----------------| 
G#|-----------------|-----------------| 
E |-----------------|-----------------| 
B |-----7-5~~~~~~~~~|/5~~~~~7~~~~~~~--| 
F#|-5-7-------------|-----------------| 
B |-----------------|---------------\0| 

Chorus(x2) 
C#|------------------------|-----------------------| 
G#|------------------------|-----------------------| 
E |------------------------|-----------------------|(x3) 
B |------------------------|-----------------------| 
F#|-0-0M-0M-3-3M-3M-11-11M-|11M-8-8M-8-8-11-11-11--| 
B |-0-0M-0M-3-3M-3M-11-11M-|11M-8-8M-8-8-11-11-11--| 

C#|----------------------|---------------------| 
G#|----------------------|---------------------| 
E |----------------------|---------------------| 
B |----------------------|---------------------| 
F#|12-12-12-8-8-8-11-11M-|11M-4-4-4M-3-3M-1-1M-| 
B |12-12-12-8-8-8-11-11M-|11M-4-4-4M-3-3M-1-1M-| 

Interlude 
C#|---------------------------------------------| 
G#|---------------------------------------------| 
E |---------------------------------------------|(x14) 
B |-16-0-16-0--------------------13-0-13-0------| 
F#|---------------------------------------------| 
B |-----------0M-0M-0M-0M-0M-0M-----------0M-0M-| 

C#|------------------------------------------------------------------------------------------------------| 
G#|------------------------------------------------------------------------------------------------------| 
E |------------------------------------------------------------------------------------------------------|(x2) 
B |------------------------------------------------------------------------------------------------------| 
F#|-0M-----0M-0M---0M---0M-0M-0M---0M-0M-0M---0M---0M-0M-0M----0M-0M-0M-0M---0M-0M-0M-0M---0M-0M-0M-0M---| 
B |-0M-----0M-0M---0M---0M-0M-0M---0M-0M-0M---0M---0M-0M-0M----0M-0M-0M-0M---0M-0M-0M-0M---0M-0M-0M-0M---| 

Bridge 

C#|------------------------------------------------------------------------------------------------------| 
G#|------------------------------------------------------------------------------------------------------| 
E |------------------------------------------------------------------------------------------------------|(x4) 
B |------------------------------------------------------------------------------------------------------| 
F#|-0M-----0M-0M---0M---0M-0M-0M---0M-0M-0M---0M---0M-0M-0M----0M-0M-0M-0M---0M-0M-0M-0M---0M-0M-0M-0M---| 
B |-0M-----0M-0M---0M---0M-0M-0M---0M-0M-0M---0M---0M-0M-0M----0M-0M-0M-0M---0M-0M-0M-0M---0M-0M-0M-0M---| 

Don't play the last eight 0s on the 4th time 

Interlude + Pre-Chorus 
C#|-------------------------------------| 
G#|-------------------------------------| 
E |-------------------------------------|(x8) 
B |-------------------------------------| 
F#|-------------------------------------| 
B |-16-0-16-0-0-0-0-0-0-0-13-0-13-0-0-0-| 

C#|-----------------------|-------------------| 
G#|-----------------------|-------------------| 
E |-----------------------|-------------------| 
B |-----------------------|-------------------| 
F#|1-1M-1M-1M-1M-1M-1M-1M-|4M-3M-1M---4-3-----| 
B |1-1M-1M-1M-1M-1M-1M-1M-|4M-3M-1M-3-----3~~~| 

Chorus 
C#|------------------------|-----------------------| 
G#|------------------------|-----------------------| 
E |------------------------|-----------------------|(x3) 
B |------------------------|-----------------------| 
F#|-0-0M-0M-3-3M-3M-11-11M-|11M-8-8M-8-8-11-11-11--| 
B |-0-0M-0M-3-3M-3M-11-11M-|11M-8-8M-8-8-11-11-11--| 

C#|----------------------|---------------------| 
G#|----------------------|---------------------| 
E |----------------------|---------------------| 
B |----------------------|---------------------| 
F#|12-12-12-8-8-8-11-11M-|11M-4-4-4M-3-3M-1-1M-| 
B |12-12-12-8-8-8-11-11M-|11M-4-4-4M-3-3M-1-1M-| 

C#|------------------------|-----------------------| 
G#|------------------------|-----------------------| 
E |------------------------|-----------------------|(x8) 
B |------------------------|-----------------------| 
F#|-0-0M-0M-3-3M-3M-11-11M-|11M-8-8M-8-8-11-11-11--| 
B |-0-0M-0M-3-3M-3M-11-11M-|11M-8-8M-8-8-11-11-11--| 

C#|----------------------|---------------------|-------------------| 
G#|----------------------|---------------------|-------------------| 
E |----------------------|---------------------|-------------------| 
B |----------------------|---------------------|-------------------| 
F#|12-12-12-8-8-8-11-11M-|11M-4-4-4M-3-3M-1-1M-|x-4-4-4M-3-3M-1-1M-| 
B |12-12-12-8-8-8-11-11M-|11M-4-4-4M-3-3M-1-1M-|x-4-4-4M-3-3M-1-1M-| 

Outro 
C#|---------------------------------------------| 
G#|---------------------------------------------| 
E |---------------------------------------------|(x11) 
B |-16-0-16-0--------------------13-0-13-0------| 
F#|---------------------------------------------| 
B |-----------0M-0M-0M-0M-0M-0M-----------0M-0M-| 

C#|-------------------------------------------| 
G#|-------------------------------------------| 
E |-------------------------------------------| 
B |-16-0-16-0---------------------------------| 
F#|-----------0M-0M-0M-0M-----0M-0M-0M-0M-----| 
B |-----------0M-0M-0M-0M-----0M-0M-0M-0M-----| 

************************************ 

| x - dead note 
| / - slide 
| ~ - vibrato 
| M - palm mute 

************************************ 
	  

Search Paypal
auto scroll beats size up size down change color hide chords drawings
tab show chords e-chords YouTube Clip e-chords hide all tabs e-chords go to top tab