Slipknot

home > Slipknot

Liberate Tab

Slipknot

Difficulty: nolevelnolevel

by taradao1000

tuner correct add songbook print version text version save to e-mail
chordsukulelecavacokeyboardtabbassdrummharmonicsflute Guitar Pro
chords

Liberate

  		B |-----------------------  
F#|-----------------------       
B |-0-10--0-00-0-00-0-00--  
 
 
B |-1-0-  
F#|-1-0-  
B |-1-0-  
     
 
B |-1-0--0-00-0-00-0-00-  
F#|-1-0--0-00-0-00-0-00-  
B |-1-0--0-00-0-00-0-00-  
          
 
B |-1-0x--1r0-1->-3-  
F#|-1-0x--1r0-1->-3-  
B |-1-0x--1r0-1->-3-  
 
 
B |-1-0x--3h1p3--0x0x-  
F#|-1-0x--3h1p3--0x0x-  
B |-1-0x--3h1p3--0x0x-  
 
 
B |-1-0x-0x-0x-1-0x-1->-3-  
F#|-1-0x-0x-0x-1-0x-1->-3-  
B |-1-0x-0x-0x-1-0x-1->-3-  
 
 
B |-0p1--0p1-  
F#|-0p1--0p1-  
B |-0p1--0p1-  
 
 
B |-7->-8-7->-8-  
F#|-x->-x-x->-x-  
B |-5->-6-5->-6-  
 
 
B |-0-h-1--0-h-1---------------------------------------  
F#|-0-h-1--0-h-1---------------------------------------  
B |-0-h-1--0-h-1---------------------------------------  
       
 
 
B |-8---9--7--6-  
F#|-x---x--x--x-  
B |-6---7--6--4-  
 
 
B |-2x-2x-2x--1x--0--1-  
F#|-2x-2x-2x--1x--0--1-  
B |-2x-2x-2x--1x--0--1-  
 
 
B |-2--1x--0--1-  
F#|-2--1x--0--1-  
B |-2--1x--0--1-  
 
 
B |-\\\\\\\\\\--  
F#|-\\\\\\\\\\--  
B |-------------  
 
 

	  

Search Paypal
auto scroll beats size up size down change color hide chords drawings
tab show chords e-chords YouTube Clip e-chords hide all tabs e-chords go to top tab