Slipknot

home > Slipknot

Eyeless Tab

Slipknot

Difficulty: AdvancedAdvanced

tuner correct add songbook print version text version save to e-mail
chordsukulelecavacokeyboardtabbassdrummharmonicsflute Guitar Pro
chords

Eyeless

  		 
Tuning: Drop  D  down 1 1/2 steps 
 
 
 C#-11-11-11-10-11-10-11-10--10-10-10-10-10-10-10-10-10-  
 G#-14-14-14-13-14-13-14-13--13-13-13-13-13-13-13-13-13-  
 E----------------------------------------------------- 
 
 
 
 E---------3-3-3-3------------------ 
 B-0-0-0-1-3-3-3-3--0-0------------- 
 F#-0-0-0-1-1-1-1-1--0-0-------------  
 B-0-0-0-1----------0-0------------- 
 
 
 E---------3-3------------3-----3--- 
 B-0-0-0-1-3-3-0-0--0-0-1-3-0-0-3-1- 
 F#-0-0-0-1-1-1-0-0--0-0-1-1-0-0-1-1-  
 B-0-0-0-1-----0-0--0-0-1---0-0---1- 
 
 
 
 E---------3-3---------------------- 
 B-0-0-0-1-3-3-0-0------------------ 
 F#-0-0-0-1-1-1-0-0------------------  
 B-0-0-0-1-----0-0------------------ 
 
 
 
 E-9-9-9-x-9-9-9-8- 
 B-8-8-8-x-8-8-8-7- 
 F#-7-7-7-x-7-7-7-6-  
 B----------------- 
 
 
                           r.h     r.h 
 E-----------s---------------------- 
 B-0-0-0-6\\\1--0-0-1-x-0-0-1-x- 
 F#-0-0-0-6\\\1--0-0-1-x-0-0-1-x-  
 B-0-0-0-6\\\1--0-0-1-x-0-0-1-x- 
 
 
 E----------------- 
 B-0---4---1-2----- 
 F#-0---4---1-2-----  
 B-0---4---1-2----- 
 
_______________________________________________________ 
Contribuio: ([email protected]) 

	  

Search Paypal
auto scroll beats size up size down change color hide chords drawings
tab show chords e-chords YouTube Clip e-chords hide all tabs e-chords go to top tab