Slipknot

home > Slipknot

Coleslaw Tab

Slipknot

Difficulty: nolevelnolevel

by aleffederico

tuner correct add songbook print version text version save to e-mail
chordsukulelecavacokeyboardtabbassdrumsharmonicsflute Guitar Pro
chords

Coleslaw

  		|-------------------|--------------------|-------------| 
|-------------------|--------------------|-------------| 
|-------------------|--------------------|-------------| 
|-------------------|--------------------|-------------| 
|-5--2-2-5-5-2-5--5-|-(5)---2-2-5-5-2-5--|-1-1-1-4-4-4-| 
|-5--2-2-5-5-2-5--5-|-(5)---2-2-5-5-2-5--|-1-1-1-4-4-4-| 

||---------------------|----------------------|-----|| 
||o--------------------|----------------------|----o|| 
||---------------------|----------------------|-----|| 
||---------------------|----------------------|-----|| 
||o-5-5-2-2-2-5-5--2-5-|-(5)-5-5-2-2-2-5-5--2-|-5--o|| 
||--5-5-2-2-2-5-5--2-5-|-(5)-5-5-2-2-2-5-5--2-|-5---|| 

|-------------||--------------------|---------------------||-------------| 
|-------------||o-------------------|--------------------o||-------------| 
|-------------||--------------------|---------------------||-------------| 
|-------------||--------------------|---------------------||-------------| 
|-1-1-1-4-4-4-||o-5--2-2-5-5-2-5--5-|-(5)---2-2-5-5-2-5--o||-1-1-1-4-4-4-| 
|-1-1-1-4-4-4-||--5--2-2-5-5-2-5--5-|-(5)---2-2-5-5-2-5---||-1-1-1-4-4-4-| 

||--15-15-15-15-16-16-16-16-16-16-18-18/-----| 
||o--x--x--x--x--x--x--x--x--x--x--x--x------| 
||--12-12-12-12-13-13-13-13-13-13-15-15/-----| 
||-------------------------------------------| 
||o------------------------------------------| 
||-------------------------------------------| 

||-------------------------------------------| 
||o------------------------------------------| 
||-------------------------------------------| 
||-------------------------------------------| 
||o--5-----5-----2--2--2--5-----5--------2-5-| 
||---5-----5-----2--2--2--5-----5--------2-5-| 

|-15--15-15-15-16-16-16-16-16-16-18---18/---|-----|| 
|--x---x--x--x--x--x--x--x--x--x--x----x----|----o|| 
|-12--12-12-12-13-13-13-13-13-13-15---15/---|-----|| 
|-------------------------------------------|-----|| 
|-------------------------------------------|----o|| 
|-------------------------------------------|-----|| 

|-------------------------------------------|-----|| 
|-------------------------------------------|----o|| 
|-------------------------------------------|-----|| 
|-------------------------------------------|-----|| 
|-(5)-----5-----5-----2--2--2--5----5-----2-|-5--o|| 
|-(5)-----5-----5-----2--2--2--5----5-----2-|-5---|| 

||--------------------|---------------------||-||--15-15-15-15-16-16-16-16-16-16-18-18/-----| 
||o-------------------|--------------------o||-||o--x--x--x--x--x--x--x--x--x--x--x--x------| 
||--------------------|---------------------||-||--12-12-12-12-13-13-13-13-13-13-15-15/-----| 
||--------------------|---------------------||-||-------------------------------------------| 
||o-------------------|--------------------o||-||o------------------------------------------| 
||--------------------|---------------------||-||-------------------------------------------| 

||--------------------|---------------------||-||-------------------------------------------| 
||o-------------------|--------------------o||-||o------------------------------------------| 
||--------------------|---------------------||-||-------------------------------------------| 
||--------------------|---------------------||-||-------------------------------------------| 
||o-5--2-2-5-5-2-5--5-|-(5)---2-2-5-5-2-5--o||-||o--5-----5-----2--2--2--5-----5--------2-5-| 
||--5--2-2-5-5-2-5--5-|-(5)---2-2-5-5-2-5---||-||---5-----5-----2--2--2--5-----5--------2-5-| 

|-15--15-15-15-16-16-16-16-16-16-18---18---|-(18)/----|| 
|--x---x--x--x--x--x--x--x--x--x--x----x---|---------o|| 
|-12--12-12-12-13-13-13-13-13-13-15---15---|-(15)/----|| 
|------------------------------------------|----------|| 
|------------------------------------------|---------o|| 
|------------------------------------------|----------|| 

|------------------------------------------|----------|| 
|------------------------------------------|---------o|| 
|------------------------------------------|----------|| 
|------------------------------------------|----------|| 
|-(5)-----5-----5-----2--2--2--5----5----2-|---5-----o|| 
|-(5)-----5-----5-----2--2--2--5----5----2-|---5------|| 

||--16--15-15-15-16-16-16-18-18-18-18-18-18-| 
||o--x---x--x--x--x--x--x--x--x--x--x--x--x-| 
||--13--12-12-12-13-13-13-15-15-15-15-15-15-| 
||------------------------------------------| 
||o-----------------------------------------| 
||------------------------------------------| 

||------------------------------------------| 
||o-----------------------------------------| 
||------------------------------------------| 
||------------------------------------------| 
||o--5---2--2--2--5-----5-----2--5----------| 
||---5---2--2--2--5-----5-----2--5----------| 

|-16--15-15-15-16-16-16-18-18-18-18-18-18-|-18/---|| 
|--x---x--x--x--x--x--x--x--x--x--x--x--x-|--x---o|| 
|-13--12-12-12-13-13-13-15-15-15-15-15-15-|-15/---|| 
|-----------------------------------------|-------|| 
|-----------------------------------------|------o|| 
|-----------------------------------------|-------|| 

|-----------------------------------------|-------|| 
|-----------------------------------------|------o|| 
|-----------------------------------------|-------|| 
|-----------------------------------------|-------|| 
|--5---2--2--2--5-----5-----2--5----------|--5---o|| 
|--5---2--2--2--5-----5-----2--5----------|--5----|| 

|------------------|---------------------| 
|------------------|---------------------| 
|------------------|---------------------| 
|------------------|---------------------| 
|-1--0-0-0--0-0-0--|-(0)-1--0-0-0--0-0-0-| 
|-1--0-0-0--0-0-0--|-(0)-1--0-0-0--0-0-0-| 

|------------------|--------------------| 
|------------------|--------------------| 
|------------------|--------------------| 
|------------------|--------------------| 
|-(0)--1--0-0-0--0-|-0-0--(0)-1--0-0-0--| 
|-(0)--1--0-0-0--0-|-0-0--(0)-1--0-0-0--| 

|---------------------|-----------------------|------------------| 
|---------------------|-----------------------|------------------| 
|---------------------|-----------------------|------------------| 
|---------------------|-----------------------|------------------| 
|-0-0-0-(0)--1--0-0-0-|-(0)-0-0-0--(0)-1--0-0-|-0--0-0-0-(0)--1--| 
|-0-0-0-(0)--1--0-0-0-|-(0)-0-0-0--(0)-1--0-0-|-0--0-0-0-(0)--1--| 

|---------------------|--------------------------| 
|---------------------|--------------------------| 
|---------------------|--------------------------| 
|---------------------|--------------------------| 
|-0-0-0--0-0-0--(0)-1-|-(1)-0-0-0--0-0-0--(0)----| 
|-0-0-0--0-0-0--(0)-1-|-(1)-0-0-0--0-0-0--(0)----| 

||--15-15-15-15-16-16-16-16-16-16-18-18/-----| 
||o--x--x--x--x--x--x--x--x--x--x--x--x------| 
||--12-12-12-12-13-13-13-13-13-13-15-15/-----| 
||-------------------------------------------| 
||o------------------------------------------| 
||-------------------------------------------| 

||-------------------------------------------| 
||o------------------------------------------| 
||-------------------------------------------| 
||-------------------------------------------| 
||o--5-----5-----2--2--2--5-----5--------2-5-| 
||---5-----5-----2--2--2--5-----5--------2-5-| 

|-15--15-15-15-16-16-16-16-16-16-18---18/---|------|| 
|--x---x--x--x--x--x--x--x--x--x--x----x----|-----o|| 
|-12--12-12-12-13-13-13-13-13-13-15---15/---|------|| 
|-------------------------------------------|------|| 
|-------------------------------------------|-----o|| 
|-------------------------------------------|------|| 
(6x) 
|-------------------------------------------|------|| 
|-------------------------------------------|-----o|| 
|-------------------------------------------|------|| 
|-------------------------------------------|------|| 
|-(5)-----5-----5-----2--2--2--5----5-----2-|-5---o|| 
|-(5)-----5-----5-----2--2--2--5----5-----2-|-5----|| 

||--------------------|---------------------|| 
||o-------------------|--------------------o|| 
||--------------------|---------------------|| 
||--------------------|---------------------|| 
||o-5--2-2-5-5-2-5--5-|-(5)---2-2-5-5-2-5--o|| 
||--5--2-2-5-5-2-5--5-|-(5)---2-2-5-5-2-5---|| 

|-------------------|-------------------|----------*| 
|-------------------|-------------------|----------*| 
|-------------------|-------------------|----------*| 
|-------------------|-------------------|----------*| 
|-5--2-2-5-5-2-5--5-|-(5)---2-2-2-5--5--|-5--------*| 
|-5--2-2-5-5-2-5--5-|-(5)---2-2-2-5--5--|-5--------*| 
	  

Search Paypal
auto scroll beats size up size down change color hide chords drawings
tab show chords e-chords YouTube Clip e-chords hide all tabs e-chords go to top tab