Slipknot

home > Slipknot

All Hope Is Gone Tab

Slipknot

Difficulty: ExpertExpert

by Indestructible

tuner correct add songbook print version text version save to e-mail
chordsukulelecavacokeyboardtabbassdrumsharmonicsflute Guitar Pro
chords

All Hope Is Gone

  		     Intro 
E-------------5---------------------| 
B-------------5---------------------| 
G-------------5-----5-5-5-----------| Guitar 1 
D-2-2-2-4-4-4-5-2-2-5-5-5-----3-3-3-| 
A-2-2-2-4-4-4---2-2-3-3-3---2-3-3-3-| 
E-0-0-0-2-2-2---0-0-------2---1-1-1-| 

E-------------5---------------------| 
B-------------5---------------------| 
G-------------5-----3-3-3-----------| Guitar 2 
D-0-0-0-2-2-2-5-0-0-3-3-3---1-1-1-1-| 
A-0-0-0-2-2-2---0-0-3-3-3-0-1-1-1-1-| 
E-0-0-0-2-2-2---0-0-------0-1-1-1-1-| 

      Verse 
E---------------------------------| 
B---------------------------------| 
G---------------------------------| Guitar 1 
D-------2-------0-0-0-------2-2-2-| 
A-0-0-0-2-------2-2-2-------0-0-0-| 
E-0-0-0-0-3-3-3-------2-2-2-------| 

E---------------------------------| 
B---------------------------------| 
G---------------------------------| Guitar 2 
D-------2-------------------4-4-4-| 
A-0-0-0-2-------0-0-0-------4-4-4-| 
E-0-0-0-0-2-2-2-------0-0-0-2-2-2-| 

      Bridge 
E-------------------------------------| 
B-------------------------------------| 
G-------------------------------------| Guitar 1 & 2 
D-2-4-------2-2-2-2-5-5-5-2-3-4-5-6-7-| 
A-2-4-0-0-0-2-2-2-2-5-5-5-2-3-4-5-6-7-| 
E-0-2-0-0-0-2-2-2-2-3-3-3-2-3-4-5-6-7-| 

      Chorus 
E-----------------------8-------------| 
B-----------------------8-------------| 
G-----------------------8-------------| Guitar 1 & 2 
D-2-2-2-4-4-4-0-0-0-0-0---2-3-4-5-6-7-| 
A-2-2-2-4-4-4-0-0-0-0-0---2-3-4-5-6-7-| 
E-0-0-0-2-2-2-0-0-0-0-0---2-3-4-5-6-7-| 
	  

Search Paypal
auto scroll beats size up size down change color hide chords drawings
tab show chords e-chords YouTube Clip e-chords hide all tabs e-chords go to top tab