Sleep On It

Hold Your Breath

Sleep On It

tabs nolevel nolevel

by  ALEFFEDERICO

save to print version add songbook text version e-mail correct tuner
chordsukulelecavacokeyboardtabbassdrumsharmonicaflute Guitar Pro
close

there isn't a video lesson for this song

chords

Hold Your Breath

	  		Tuning: Drop D (DADGBe) 

Guitar 1 - TJ Horansky 
Guitar 2 - Jake Marquis 

Intro 

Guitar 1 
e|------------------------------------------------------------| 
B|------------------------------------------------------------| 
G|---3-3-3-3-3-3----3-3-3-3-3-3----3-3-3-3-3-3---3-3-3-3-3-3--| 
D|-x-3-3-3-3-3-3----3-3-3-3-3-3----3-3-3-3-3-3---5-5-5-3-3-3--| 
A|-x-1-1-1-1-1-1----1-1-1----------1-1-1-1-1-1---5-5-5--------| 
D|-x-1-1-1-1-1-1----------3-3-3----1-1-1-1-1-1---------3-3-3--| 

Full Band Intro 

Guitar 1 
e|--------------------------------------------------------2x-| 
B|-----------------------------------------------------------| 
G|-3-3-3-3-3-3----3-3-3-3-3-3----3-3-3-3-3-3-----------------| 
D|-3-3-3-3-3-3----3-3-3-3-3-3----3-3-3-3-3-3---5-5-5-3-3-3---| 
A|-1-1-1-1-1-1----1-1-1----------1-1-1-1-1-1---5-5-5-3-3-3---| 
D|-1-1-1-1-1-1----------3-3-3----1-1-1-1-1-1---5-5-5-3-3-3---| 

Guitar 2 
e|-------10----------------------------------13--------------------------| 
B|---11----11--11-----11--13p11--11------11----11--11-----11--10h11--11--| 
G|-10--10----10-----10--10-----10------10--10----10-----10--10-----10----| 
D|-----------------------------------------------------------------------| 
A|-----------------------------------------------------------------------| 
D|-----------------------------------------------------------------------| 
   *   *      *      *   *      *       *   *     *      *   *      *  
verse 1 

Guitar 1         V (00:25) 
e|-------------|-----------|--------------------------------------------------------2x-| 
B|-------------|-----------|-----------------------------------------------------------| 
G|-------------|-----------|-3-3-3-3-3-3----3-3-3-3-3-3----3-3-3-3-3-3-----------------| 
D|-1-1~--------|-0-0-0-0---|-3-3-3-3-3-3----3-3-3-3-3-3----3-3-3-3-3-3---5-5-5-3-3-3---| 
A|-1-1~--------|-1-1-1-1---|-1-1-1-1-1-1----1-1-1----------1-1-1-1-1-1---5-5-5-3-3-3---| 
D|-1-1~--------|-0-0-0-0---|-1-1-1-1-1-1----------3-3-3----1-1-1-1-1-1---5-5-5-3-3-3---| 

e|----------------------------------------------------------------------------------------------------------| 
B|----------------------------------------------------------------------------------------------------------| 
G|----------------------------------------------------------------------------------------------------------| 
D|---------------3-3-3---------------------------------------------------3-3-3------------------------------| 
A|-1-1-1-1-1-1---1-1-1-3-3-3---1-1-1-1-1-1---5-5-5-3-3-3---1-1-1-1-1-1---1-1-1-3-3-3---1-1-1-1-1-1--(pause)-| 
D|-1-1-1-1-1-1---------3-3-3---1-1-1-1-1-1---5-5-5-3-3-3---1-1-1-1-1-1---------3-3-3---1-1-1-1-1-1----------| 
   * * * * * *   * * * * * *   * * * * * *   * * * * * *   * * * * * *   * * * * * *   * * * * * *   
Guitar 2 
e|-------------------------|-------10----------------------------------13--------------------------| 
B|-11~---------------------|---11----11--11-----11--13p11--11------11----11--11-----11--10h11--11--| 
G|-------------------------|-10--10----10-----10--10-----10------10--10----10-----10--10-----10----| 
D|-------------------------|-----------------------------------------------------------------------| 
A|-------------------------|-----------------------------------------------------------------------| 
D|-------------------------|--------------------------------------------------------------------2x-| 
                             *   *      *      *   *      *       *   *     *      *   *      *  
Chorus 

Guitar 1 
e|--------------------------------------------2x-|-------------------------2x-|-----------------------------| 
B|-----------------------------------------------|----------------------------|-----------------------------| 
G|------------3-3~-----------------3-3~----------|-------3--------------------|-----------------------------| 
D|-1-1-1-1----3-3~-1-3~----5-5-----3-3~--3-5-3~--|-1-----3--x7-3-5-5~---3-3~--|-1~--------------------------| 
A|-1-1-1-1----1-1~-1-3~----5-5-----1-1~--3-5-3~--|-1--x8-1-----3-5-5~---3-3~--|-1~--------------------------| 
D|-1-1-1-1---------1-3~----5-5-----------3-5-3~--|-1-----------3-5-5~---3-3~--|-1~--------------------------| 

Guitar 2 
e|--------------------------------------------2x-|-13-10--11-10--------13----13-----11-10-|-----------------| 
B|-----------------------------------------------|------11-----11-13-11----11--10-11------|-11~----13-11----| 
G|-3-3-3-3-3-3-3-3-3-5-5-5-3---------7-7~-5-7-5~-|-----------------------12---------------|-------------10~-| 
D|----------------------------x8-----------------|----------------------------------------|-----------------| 
A|-1-1-1-1-1-1-1-1-1-3-3-3-1---------5-5~-3-5-3~-|----------------------------------------|-----------------| 
D|-----------------------------------------------|-------------------------------------2x-|-----------------| 

verse 2 

Guitar 1 
e|----------------------------------------------------------------------------------------------------------| 
B|----------------------------------------------------------------------------------------------------------| 
G|----------------------------------------------------------------------------------------------------------| 
D|---------------3-3-3-------------------------------------------------3-3-3--------------------------------| 
A|-1-1-1-1-1-1---1-1-1-3-3-3--1-1-1-1-1-1---5-5-5-3-3-3--1-1-1-1-1-1---1-1-1-3-3-3--1-1-1-1-1-1---1-1-1-1-1-| 
D|-1-1-1-1-1-1---------3-3-3--1-1-1-1-1-1---5-5-5-3-3-3--1-1-1-1-1-1---------3-3-3--1-1-1-1-1-1---1-1-1-1-1-| 
   * * * * * *   * * * * * *  * * * * * *   * * * * * *  * * * * * *   * * * * * *  * * * * * *   * * * * *    
e|----------------------------------------------------------------------------------------------------------| 
B|----------------------------------------------------------------------------------------------------------| 
G|----------------------------------------------------------------------------------------------------------| 
D|-1-------------3-3-3---------------------------------------------------3-3-3------------------------------| 
A|-1-1-1-1-1-1---1-1-1-3-3-3---1-1-1-1-1-1---5-5-5-3-3-3---1-1-1-1-1-1---1-1-1-3-3-3---1-1-1-1-1-1--(pause)-| 
D|-1-1-1-1-1-1---------3-3-3---1-1-1-1-1-1---5-5-5-3-3-3---1-1-1-1-1-1---------3-3-3---1-1-1-1-1-1----------| 
     * * * * *   * * * * * *   * * * * * *   * * * * * *   * * * * * *   * * * * * *   * * * * * *    
Guitar 2 (comes in at 1:23) 
e|-10--10-----------10-11p10--10--------------13-----------------------------------------| 
B|---11--11-13-11-13--------13--10h11-10h11-11--11-11-10h11-10h11-11-11-11-11------------| 
G|---------------------------------------------------------------------------14-14-14-14-| 
D|---------------------------------------------------------------------------------------| 
A|---------------------------------------------------------------------------------------| 
D|---------------------------------------------------------------------------------------| 

e|---13-10-----10-11p10--10-----------------------------------10h13-10--10---------| 
B|-11-----11-13--------13--10h11-10h11-11-11-10h11-11-11-11-11--------13--11-10h11-| 
G|---------------------------------------------------------------------------------| 
D|---------------------------------------------------------------------------------| 
A|---------------------------------------------------------------------------------| 
D|---------------------------------------------------------------------------------| 

Chorus 2 

Guitar 1 
e|--------------------------------------------2x-|-------------------------2x-|-----------------------------| 
B|-----------------------------------------------|----------------------------|-----------------------------| 
G|------------3-3~-----------------3-3~----------|-------3--------------------|-----------------------------| 
D|-1-1-1-1----3-3~-1-3~----5-5-----3-3~--3-5-3~--|-1-----3--x7-3-5-5~---3-3~--|-4~--------------------------| 
A|-1-1-1-1----1-1~-1-3~----5-5-----1-1~--3-5-3~--|-1--x8-1-----3-5-5~---3-3~--|-----------------------------| 
D|-1-1-1-1---------1-3~----5-5-----------3-5-3~--|-1-----------3-5-5~---3-3~--|-----------------------------| 

Guitar 2 
e|--------------------------------------------2x-|-13-10--11-10--------13----13-----11-10-|-----------------| 
B|-----------------------------------------------|------11-----11-13-11----11--10-11------|-11~----13-11----| 
G|-3-3-3-3-3-3-3-3-3-5-5-5-3---------7-7~-5-7-5~-|-----------------------12---------------|-------------10~-| 
D|----------------------------x8-----------------|----------------------------------------|-----------------| 
A|-1-1-1-1-1-1-1-1-1-3-3-3-1---------5-5~-3-5-3~-|----------------------------------------|-----------------| 
D|-----------------------------------------------|-------------------------------------2x-|-----------------| 

Bridge 

Guitar 1 
e|--------------------------------------------------------2x-|| 
B|-----------------------------------------------------------|| 
G|-3-3-3-3-3-3----3-3-3----------3-3-3-3-3-3-----------------|| 
D|-1-1-1-1-1-1----3-3-3-3-3-3----1-1-1-1-1-1-----------------|| 
A|-1-1-1-1-1-1----1-1-1-3-3-3----1-1-1-1-1-1---5-5-5-3-3-3---|| 
D|-1-1-1-1-1-1----------3-3-3----1-1-1-1-1-1---5-5-5-3-3-3---|| 

e|--------------------------------------------|------------1.-|-------------2.-|| 
B|--------------------------------------------|---------------|-3-3-3-1-1-1----|| 
G|-3-3-3-3-3-3----3-3-3----------3-3-3-3-3-3--|---------------|-3-3-3-2-2-2----|| 
D|-3-3-3-3-3-3----3-3-3-3-3-3----3-3-3-3-3-3--|-5-5-5-3-3-3---|-5-5-5-3-3-3----|| 
A|-1-1-1-1-1-1----1-1-1-3-3-3----1-1-1-1-1-1--|-5-5-5-3-3-3---|-5-5-5-3-3-3----|| 
D|-1-1-1-1-1-1----------3-3-3----1-1-1-1-1-1--|-5-5-5-3-3-3---|----------------|| 

Guitar 2 
e|-------------------------------------------------------2x-| 
B|----------------------------------------------------------| 
G|-8-8-8-8-8-8----7-7-7-5-5-5----101010101010--101010101010-| 
D|----------------------------------------------------------| 
A|-6-6-6-6-6-6----5-5-5-3-3-3----8-8-8-8-8-8---8-8-8-8-8-8--| 
D|----------------------------------------------------------| 
                                                                      
e|-------10-------------------------------------13-------------------------| 
B|---11----11--11-----11--11h13p11--11------11----11--11-----11--10h11--11-| 
G|-10--10----10-----10--10--------10------10--10----10-----10--10-----10---| 
D|-------------------------------------------------------------------------| 
A|-------------------------------------------------------------------------| 
D|----------------------------------------------------------------------2x-| 
                          ===3===*                       * - on second time, omit first note of triplet 
Break (guitar 1 only) 
e|-----------------------------------------------------2x-| 
B|--------------------------------------------------------| 
G|-3-3-3-3-3-3----3-3-3-3-3-3-3-3-3-3-3-3---3-3-3-2-2-2---| 
D|-3-3-3-3-3-3----3-3-3-3-3-3-5-5-5-5-5-5---5-5-5-3-3-3---| 
A|-1-1-1-1-1-1----1-1-1-------5-5-5-5-5-5---5-5-5-3-3-3---| 
D|-1-1-1-1-1-1----------3-3-3-----------------------------| 

Final Chorus 

Guitar 1 
e|--------------------------------------------2x-|-------------------------2x-|| 
B|-----------------------------------------------|----------------------------|| 
G|------------3-3~-----------------3-3~----------|-------3--------------------|| 
D|-1-1-1-1----3-3~-1-3~----5-5-----3-3~--3-5-3~--|-1-----3--x7-3-5-5~---3-3~--|| 
A|-1-1-1-1----1-1~-1-3~----5-5-----1-1~--3-5-3~--|-1--x8-1-----3-5-5~---3-3~--|| 
D|-1-1-1-1---------1-3~----5-5-----------3-5-3~--|-1-----------3-5-5~---3-3~--|| 

e|-------------|----------1.-|--------------2.-|| 
B|-------------|-------------|-----------------|| 
G|-------3-----|-------------|-----------------|| 
D|-1-----3--x8-|-5-----7-----|-3-5-5---3-3-3-3-|| 
A|-1--x8-1-----|-5--x8-8--x8-|-3-5-5---3-3-3-3-|| 
D|-1-----------|-5-----7-----|-3-5-5---3-3-3-3-|| 

Guitar 2 
e|--------------------------------------------2x-| 
B|-----------------------------------------------| 
G|-3-3-3-3-3-3-3-3-3-5-5-5-3---------7-7~-5-7-5~-| 
D|----------------------------x8-----------------| 
A|-1-1-1-1-1-1-1-1-1-3-3-3-1---------5-5~-3-5-3~-| 
D|-----------------------------------------------| 

e|-13-10--11-10--------13----13-----11-10-|-13-10--11-10---------------------------------| 
B|------11-----11-13-11----11--10-11------|------11-----11-13-11-------------------------| 
G|-----------------------12---------------|----------------------2/3--x8-2/3--x8-2-2-2-2-| 
D|----------------------------------------|----------------------------------------------| 
A|----------------------------------------|----------------------------------------------| 
D|-------------------------------------3x-|----------------------------------------------| 
___________________________________________________________________________________________________________ 
* - palm mute 
/ or \ - slide 
h - hammer on 
p - pull off 
~ - let note ring 
x - mute note 
		  

Full key step upFull key step up
Half key step upHalf key step up
Half key step downHalf key step down
Full key step downFull key step down
hide glossary

See also:

tabs Deep Purple - Sometimes a Feel Like Screaming tabs Deep Purple - Mistreated tabs Deep Purple - Smoke on the Water (ver. 2) tabs Ira! - Vitrine Viva tabs Doa - Sexyest Girl tabs Deep Purple - Ted The Mechanic
e-chords

Other versions:

tabs Ben Marwood - Hold Your Breath tabs Sleep On It - Hold Your Breath
auto scroll beats size up size down change color hide chords drawings
tab show chords e-chords YouTube Clip e-chords hide all tabs e-chords go to top tab

share with facebook