Slayer

Raining Blood Riff

Slayer

tabs Expert expert

by  HOGENHAM69

save to print version add songbook text version e-mail correct tuner
chordsukulelecavacokeyboardtabbassdrumsharmonicaflute Guitar Pro
close

there isn't a video lesson for this song

chords

Raining Blood Riff

	  		Raing Bllod riff rite before the solo 

standard tuning 

p=palm mute 

E---------------------------------------------------------- 
B---------------------------------------------------------- 
G---------------------------------------------------------- 
D---------------------------------------------------------- 
A-0-0-0-0-7-8-7--6-7-6--5-6-5--0-0-0-0-7-8-7--6-7-6--5-6-5- 
E-0-0-0-0-7-8-7--6-7-6--5-6-5--0-0-0-0-7-8-7--6-7-6--5-6-5- 
  p p p p                      p p p p 
E---------------------------------------------------------- 
B---------------------------------------------------------- 
G---------------------------------------------------------- 
D---------7-8-7--6-7-6--5-6-5------------------------------ 
A-0-0-0-0-7-8-7--6-7-6--5-6-5--0-0-0-0-7-8-7--6-7-6--5-6-5- 
E-0-0-0-0----------------------0-0-0-0-7-8-7--6-7-6--5-6-5- 
  p p p p                      p p p p  
E-------------------------------------- 
B-------------------------------------- 
G-------------------------------------- 
D-------------------------------------- 
A--------------------------------7-7-7- 
E-555555555555555555555555555555-5-5-5- 
  pppppppppppppppppppppppppppppp 

thats mostly the riff before the intro 
(there are 32 fast strummed notes on that last part 
e-mail me at [email protected] for questions or requests 
		  

auto scroll beats size up size down change color hide chords drawings
tab show chords e-chords YouTube Clip e-chords hide all tabs e-chords go to top tab

share