Slaughter

Nocturnal Hell

Slaughter

tabs

by  ADALGOMES

save to print version add songbook text version e-mail correct tuner
chordsukulelecavacokeyboardtabbassdrumsharmonicaflute Guitar Pro
close

there isn't a video lesson for this song

chords

Nocturnal Hell

	  		e|------------------------------------------| 
B|------------------------------------------| 
G|------------------------------------------| 
D|-------2-1---------2-1---------2-1--------| x2 
A|2--2-1------2--2-1------2--2-1-----2-1----| 
E|0-----------0-----------0--------------2-1| 

e|------------------------------------------------| 
B|------------------------------------------------| 
G|------------------------------------------------| 
D|---------2-1-----------2-1-----------2-1--------| x2 
A|-----2-1-----------2-1-----------2-1-----2-1----| 
E|0000----------0000----------0000-------------2-1| 

e|-------------------------------------------| 
B|-------------------------------------------| 
G|-------------------------------------------| 
D|-----------------2-1------------------2-1--| x2 
A|-------------2-1------------------2-1------| 
E|000000000000---------000000000000----------| 

e|-----------------------------------------------|      |---| 
B|-----------------------------------------------|      |---| 
G|-----------------------------------------------|      |---| 
D|-------------9-----------------------9---------| x12  |---| 
A|-------------7-----10-9--------------7-----10-9|      |-9-| 
E|000000000000---000-8--7-000000000000---000-8--7|      |-7-| 

e|-----------------------------------------| 
B|-----------------------------------------| 
G|-----------------------------------------| 
D|-----------------5------------------6-8-7| x4 
A|-----3---3-------3-------3---3------4-6-5| 
E|0000-1-0-1--0000----0000-1-0-1-0000------| 



************************************ 

| /   slide up 
| \   slide down 
| h   hammer-on 
| p   pull-off 
| ~   vibrato 
| +   harmonic 
| x   Mute note 
| b   Bend 
| pb  Pre-bend 
| br  Bend release 
| pbr Pre-bend release 
| brb Bend release bend 

************************************ 
		  

See also:

tabs Deep Purple - Strange kind of woman tabs Deep Purple - Smoke On The Water tabs Deep Purple - Time To Kill tabs Albert Hammond Jr - Gfc tabs Deep Purple - Soldier Of Fortune tabs Ira! - Nucleo De Base
e-chords

Other versions:

tabs Slaughter - Nocturnal Hell
auto scroll beats size up size down change color hide chords drawings
tab show chords e-chords YouTube Clip e-chords hide all tabs e-chords go to top tab

share