Slash

World On Fire

Slash

tabs

by  GUSTSILVA

save to print version add songbook text version e-mail correct tuner
chordsukulelecavacokeyboardtabbassdrumsharmonicaflute Guitar Pro
close

there isn't a video lesson for this song

chords

World On Fire

	  		

Main Riff: 

eb|--------------------------------------------------------------------------------5-------| 
Bb|-7h8-------8-------7h8~---------------------------------------------------------5-------| 
Gb|-7h9-------9-------7h9~-9-7h8p7s5-7-5-------------------------------------5-7-----7-5---| 
Db|-7---------7-------7~-----------------7-5--5h7---------7-----------5h7--7-------------7-| 
Ab|-----0-0-0---0-0-0-------------------------0---0-0-0-0-0---0-0-0-0-0--------------------| 
Eb|----------------------------------------------------------------------------------------| 
        PM--|   PM--|                             PM----|     PM----| 

Verse Riff: 

eb|---------------|--------------------------------------------------------------------| 
Bb|---------------|--------------------------------------------------------------------| 
Gb|-------4-------|--------------------------------------------------------------------| 
Db|---5-7---7-5---|--------------------------------------------------------------------| 
Ab|-7-----------7-|-5-----5-----5-----7-5----------------------------------------------| 
Eb|---------------|---0-0---0-0---0-0-----0-7-5-3-0-3-0-0-3-0-0-3-0-0-0-3-5-7-5-3-0----| 
                   PM-------------------------------------------------------------| 

Bridge: 

eb|---------------------------------------------------------------------------| 
Bb|---------------------------------------------------------------------------| 
Gb|---------------------------------------------------------------------------| 
Db|-5-5-5-5-5-5-5-5-5-5-5-5-5-5-5---2-2---2-2---2-2---2-2---------------------| 
Ab|-3-3-0-3-3-0-3-3-0-3-3-0-3-3-0---0-0---0-0---0-0---0-0---0-3-0-------------| 
Eb|-------------------------------3-----3-----3-----3-----3-------3-----------| 
    PM------------------------------------------------------------| 

eb|---------------------------------------------------------------------------| 
Bb|---------------------------------------------------------------------------| 
Gb|-------------------------------------------------------------7-------------| 
Db|-5-5-5-5-5-5-5-5-5-5-5-5-5-5-5-5-7-7-7-7-7-7-7-7-4-4-4-4-4-4-7-------------| 
Ab|-3-3-0-3-3-0-3-3-0-3-3-0-3-3-0-3-5-5-0-5-5-0-5-0-2-2-0-2-2-0-5-------------| 
Eb|---------------------------------------------------------------------------| 
    PM--------------------------------------------------------| 

Chorus: 

eb|-----------------------------------------------------------------------------| 
Bb|-----------------------------------------------------------------------------| 
Gb|-9-9-----------------------------------9-9-----------------------------------| 
Db|-9-9-x-----------7-x-5-5-x-7-x---------9-9-x-----------7-x-5-5-x-7-x-4-4-x-7-| 
Ab|-7-7-x-9-x-5-5-x-5-x-3-3-x-5-x-7-x-5-x-7-7-x-9-x-5-5-x-5-x-3-3-x-5-x-2-2-x-5-| 
Eb|-------7-x-3-3-x---------------5-x-3-x-------7-x-3-3-x-----------------------| 

eb|-----------------------------------------------------------------------------| 
Bb|-----------------------------------------------------------------------------| 
Gb|-9-9-----------------------------------9-9-----------------------------------| 
Db|-9-9-x-----------7-x-5-5-x-7-x---------9-9-x---------------------------------| 
Ab|-7-7-x-9-x-5-5-x-5-x-3-3-x-5-x-7-x-5-x-7-7-x-9-x-5-5-x-----------------------| 
Eb|-------7-x-3-3-x---------------5-x-3-x-------7-x-3-3-x-----------------------| 

Chorus End 1: 

eb|--------------------| 
Bb|--------------------| 
Gb|--------------------| 
Db|-9-8-7~-7-6-4~-5-4--| 
Ab|-7-6-5~-5-4-2~-3-2--| 
Eb|--------------------| 

Chorus End 2: 

eb|---------------------| 
Bb|---------------------| 
Gb|---------------------| 
Db|-9-8-7~-7-6-5~-7-7---| 
Ab|-7-6-5~-5-4-3~-5-5-0-| 
Eb|---------------------| 

Chorus End 3: 

eb|-------------------0-| 
Bb|-------------------x-| 
Gb|-------------------2-| 
Db|-9-8-7~-7-6-5~-5-4-2-| 
Ab|-7-6-5~-5-4-3~-3-2-0-| 
Eb|---------------------| 

Pre-Solo: 

eb|----------------------------------| 
Bb|----------------------------------| 
Gb|----------------------------------| 
Db|-4-4-4-4-4-4-4-4-4-4-4-4-4-4-4-4--| 
Ab|-2-2-0-2-2-0-2-2-0-2-2-0-2-0-0-0--| x3 
Eb|----------------------------------| 
    PM----------------------------| 

eb|----------------------------------| 
Bb|----------------------------------| 
Gb|----------------------------------| 
Db|--4-4-4-5-5-5-6-6-6-7-7-7-8-8-9-9-| 
Ab|--2-2-0-3-3-0-4-4-0-5-5-0-6-0-7-0-| 
Eb|----------------------------------| 

Solo (rhythm) 

eb|---------------------------| 
Bb|---------------------------| 
Gb|---------------------------| 
Db|-------5-----------5--4s7--| 
Ab|-2--5--3--7--2--5--3--2s5--| x2 
Eb|-0--3-----5--0--3----------| 

eb|---------------------| 
Bb|---------------------| 
Gb|---------------------| 
Db|-9-8-7~-7-6-4~-5-4-2~| 
Ab|-7-6-5~-5-4-2~-3-2-0~| 
Eb|---------------------| 

Structure: 

Main Riff x4 
Verse Riff x4 
Bridge 
Chorus (Chorus End 1) 
Main Riff x2 
Verse Riff x4 
Bridge 
Chorus (Chorus End 2) 
Pre-Solo 
Solo 
Main Riff (first half) x4 
Chorus x2 (Chorus End 3) 


************************************ 

| /   slide up 
| \   slide down 
| h   hammer-on 
| p   pull-off 
| ~   vibrato 
| +   harmonic 
| x   Mute note 
| b   Bend 
| pb  Pre-bend 
| br  Bend release 
| pbr Pre-bend release 
| brb Bend release bend 

************************************ 
		  

See also:

tabs The Offspring - The Kids Aren't Alright tabs Smashing Pumpkins - Today tabs Guns N' Roses - Don't Cry tabs Blue Oyster Cult - Dont Fear The Reaper tabs 4 Non Blondes - What's Up? tabs Aerosmith - Crazy
e-chords

Other versions:

tabs Slash - World On Fire tabs Corrosion of Conformity - World On Fire
auto scroll beats size up size down change color hide chords drawings
tab show chords e-chords YouTube Clip e-chords hide all tabs e-chords go to top tab

share