Slash

The Dissident

Slash

tabs Easy easy

by  EDUCASTILHO

save to print version add songbook text version e-mail correct tuner
chordsukulelecavacokeyboardtabbassdrumsharmonicaflute Guitar Pro
close

there isn't a video lesson for this song

chords

The Dissident

	  		
          A 
 
      Q    Q.     E  E  E     Q    Q.     E  E  E     Q    Q    E  E  E  E 
E|-------0------0--0--0--|-------0------0--0--0--|-------0----0--0--0--0--| 
B|-------2------2--2--2--|-------2------2--2--2--|-------2----2--2--2--2--| 
G|-------2------2--2--2--|-------2------2--2--2--|-------2----2--2--2--2--| 
D|-------2------2--2--2--|-------2------2--2--2--|-------2----2--2--2--2--| 
A|--0----0------0--0--0--|--0----0------0--0--0--|--0----0----0--0--0--0--| 
E|-----------------------|-----------------------|------------------------| 
 


       E                                                D 
 
   Q    Q.     E  E  E     Q    Q    E  E  E  E     Q    Q    E  E  E  E 
-------0------0--0--0--|-------0----0--0--0--0--|-------2----2--2--2--2--| 
-------0------0--0--0--|-------0----0--0--0--0--|-------3----3--3--3--3--| 
-------1------1--1--1--|-------1----1--1--1--1--|-------2----2--2--2--2--| 
-------2------2--2--2--|-------2----2--2--2--2--|--0----0----0--0--0--0--| 
-------2------2--2--2--|-------2----2--2--2--2--|------------------------| 
--0----0------0--0--0--|--0----0----0--0--0--0--|------------------------| 
 


       E                        A 
 
   Q    Q    E  E  E  E     Q    Q.     E  E  E     Q    Q    E  E  E  E 
-------0----0--0--0--0--|-------0------0--0--0--|-------0----0--0--0--0--| 
-------0----0--0--0--0--|-------2------2--2--2--|-------2----2--2--2--2--| 
-------1----1--1--1--1--|-------2------2--2--2--|-------2----2--2--2--2--| 
-------2----2--2--2--2--|-------2------2--2--2--|-------2----2--2--2--2--| 
-------2----2--2--2--2--|--0----0------0--0--0--|--0----0----0--0--0--0--| 
--0----0----0--0--0--0--|-----------------------|------------------------| 
 


                                                        E 
 
   Q    Q.     E  E  E     Q    Q    E  E  E  E     Q    Q.     E  E  E 
-------0------0--0--0--|-------0----0--0--0--0--|-------0------0--0--0--| 
-------2------2--2--2--|-------2----2--2--2--2--|-------0------0--0--0--| 
-------2------2--2--2--|-------2----2--2--2--2--|-------1------1--1--1--| 
-------2------2--2--2--|-------2----2--2--2--2--|-------2------2--2--2--| 
--0----0------0--0--0--|--0----0----0--0--0--0--|-------2------2--2--2--| 
-----------------------|------------------------|--0----0------0--0--0--| 
 


                                D                        E 
 
   Q    Q    E  E  E  E     Q    Q    E  E  E  E     Q    Q    E  E  E  E 
-------0----0--0--0--0--|-------2----2--2--2--2--|-------0----0--0--0--0--| 
-------0----0--0--0--0--|-------3----3--3--3--3--|-------0----0--0--0--0--| 
-------1----1--1--1--1--|-------2----2--2--2--2--|-------1----1--1--1--1--| 
-------2----2--2--2--2--|--0----0----0--0--0--0--|-------2----2--2--2--2--| 
-------2----2--2--2--2--|------------------------|-------2----2--2--2--2--| 
--0----0----0--0--0--0--|------------------------|--0----0----0--0--0--0--| 
 


       A 
 
   Q    Q    E  E  E  E     E 
-------0----0--0--0--0--|--0--|| 
-------2----2--2--2--2--|--2--|| 
-------2----2--2--2--2--|--2--|| 
-------2----2--2--2--2--|--2--|| 
--0----0----0--0--0--0--|--0--|| 
------------------------|-----|| 
 

The Dissident 
 
       E  E  E  Q    E  E  E     E  E  E  Q    E  E  E 
D#||-------------------------|-------------------------| 
A#||-----------0----1--0--3--|--L----------------------| 
F#||--------0--0----------2--|--L--0-----2----------0--| 
C#||-----2-----0----------0--|--L-----4--2----2--4-----| 
G#||--3--------2-------------|-----------0-------------| 
D#||-----------3-------------|-------------------------| 
 


 
   E  E  E  Q    E  E  E     E  E  E  Q    E  E  E     E  E  E  Q    E  E  E 
-------------------------|-------------------------|-------------------------| 
-----------0----1--0--3--|--L----------------------|-----------0----1--0--3--| 
--------0--0----------2--|--L--0-----2-------0--2--|--------0--0----------2--| 
-----2-----0----------0--|--L-----4--2----2--------|-----2-----0----------0--| 
--3--------2-------------|-----------0-------------|--3--------2-------------| 
-----------3-------------|-------------------------|-----------3-------------| 
 


 
   E  E  E  Q    E  E  E     E  E  E  Q    E  E  E     E  E  E  Q    E  E  E 
-------------------------|-------------------------|-------------------------| 
--L----------------------|-----------0----1--0--3--|--L----------------------| 
--L--0-----2----------0--|--------0--0----------2--|--L--0-----2-------0--2--| 
--L-----4--2----2--4-----|-----2-----0----------0--|--L-----4--2----2--------| 
-----------0-------------|--3--------2-------------|-----------0-------------| 
-------------------------|-----------3-------------|-------------------------| 
 


 
     E  E  E   Q      E     E   E     E   E     E  Q    E   E  E 
----------------------------------|------------------------------| 
----------8--11b----12pbr--L--10--|--L------------------------8--| 
-------9--------------------------|-----11pbr--L--9----9--11-----| 
--/10-----------------------------|------------------------------| 
----------------------------------|------------------------------| 
----------------------------------|------------------------------| 
 


    E  E  E   Q      E     E   E     E   E     E  Q.     Q      
 
----------------------------------|---------------------------| 
----------8--11b----12pbr--L--10--|--L------------------------| 
-------9--------------------------|-----11pbr--L--9------L----| 
--/10-----------------------------|---------------------------| 
----------------------------------|---------------------------| 
----------------------------------|---------------------------| 



 
     E  E  E   Q      E     E   E     E   E     E  Q    E   E  E 
----------------------------------|------------------------------| 
----------8--11b----12pbr--L--10--|--L------------------------8--| 
-------9--------------------------|-----11pbr--L--9----9--11-----| 
--/10-----------------------------|------------------------------| 
----------------------------------|------------------------------| 
----------------------------------|------------------------------| 
 


    E  E  E   Q      E     E   E     E   E     E  Q.     Q      
 
----------------------------------|---------------------------| 
----------8--11b----12pbr--L--10--|--L------------------------| 
-------9--------------------------|-----11pbr--L--9------L----| 
--/10-----------------------------|---------------------------| 
----------------------------------|---------------------------| 
----------------------------------|---------------------------| 
		  

See also:

tabs The Offspring - The Kids Aren't Alright tabs Smashing Pumpkins - Today tabs Guns N' Roses - Don't Cry tabs Blue Oyster Cult - Dont Fear The Reaper tabs 4 Non Blondes - What's Up? tabs Aerosmith - Crazy
e-chords

Other versions:

tabs Slash - The Dissident
auto scroll beats size up size down change color hide chords drawings
tab show chords e-chords YouTube Clip e-chords hide all tabs e-chords go to top tab

share