Slash

Standing On The Sun

Slash

tabs

by  ABELAMIN

save to print version add songbook text version e-mail correct tuner
chordsukulelecavacokeyboardtabbassdrumsharmonicaflute Guitar Pro
close

there isn't a video lesson for this song

chords

Standing On The Sun

	  		
Riff Principal - Slash 
E|------------------------------| 
B|------------------------------| 
G|------------------------------| 
D|------------------------------| 
A|------------------------------| 
E|-2--0h2-0h2-2p0-2--2--0h2-2p0-| 


Myles Kennedy ( Come├ža em 0:14,) 
E|--2-----------|--2-----------|-------------|--2-----------| 
B|--2-----------|--4-----------|--4----------|--4-----------| 
G|--3-----------|--4-----------|--5----------|--4-----------| 
D|--4-----------|--------------|--6----------|--------------| 
A|--------------|--------------|-------------|--------------| 
E|--------------|--------------|-------------|--------------| 

Pre-Refrao- Slash Toca o Riff Principal em Palm Muted 
Myles Toca o Seguinte: 

E|-2--x--2--xxxx-2--2--| 
B|-2--x--2--xxxx-2--2--| 
G|-3--x--3--xxxx-3--3--| 
D|-4--x--4--xxxx-4--4--| 
A|---------------------| 
E|---------------------| 

Refrao- Toca 2x 

E|---------------|-------------|-------------|--------------| 
B|-3---------PM--|---------PM--|-------------|--------------| 
G|-2-------------|-2-----------|-4-----------|-3------------| 
D|-2---------2-2-|-2-------2-2-|-4-------4-4-|-4------------| 
A|-0---------0-0-|-0-------0-0-|-2-------2-2-|-4------------| 
E|---------------|-------------|-------------|-2------------| 

Pre-Verso Slash 
 |                       Let Ring                        | 
E|---------------------------|---------------------------| 
B|-----7----7----7----7----7-|-----7----7----7----7----7-| 
G|---------------------------|-------------8-------------| 
D|-7/8----8----8----8----8---|-8/9----9----9----9----9---| 
A|---------------------------|---------------------------| 
E|---------------------------|---------------------------| 

 |                       Let Ring                                | 
E|----------------------------|----------------------------------| 
B|-----9----9----9----9----9--|-10-10-7---7-7--------------------| 
G|----------------------------|---------9-----9p6-9-9-6---6-6----| 
D|9/10----10---10---10---10---|-------------------------8-----7~-| 
A|----------------------------|----------------------------------| 
E|----------------------------|----------------------------------| 

Repete Verso 

Repete Refrao 

Ponte Slash - 
E|-----------------------|------------------------| 
B|-----------------------|------------------------| 
G|-----------------------|------------------------| 
D|-6----6--6--4--6--4--6-|-(6)-4--6----4--6--4----| 
A|-4----4--4--4--4--4--4-|-(4)-4--4----4--4--4----| 
E|-----------------------|------------------------| 

E|-----------------------|------------------------| 
B|-----------------------|------------------------| 
G|-----------------------|------------------------| 
D|-4----4--4--2--4--2--4-|-(4)-2--4----2--4--2----| 
A|-2----2--2--2--2--2--2-|-(2)-2--2----2--2--2----| 
E|-----------------------|------------------------| 

E|-----------------------|------------------------| 
B|-----------------------|------------------------| 
G|-----------------------|------------------------| 
D|-6----6--6--4--6--4--6-|-(6)-4--6----4--6--4----| 
A|-4----4--4--4--4--4--4-|-(4)-4--4----4--4--4----| 
E|-----------------------|------------------------| 

   Ponte Myles - 
E|-------------------|-----------------------| 
B|-------------------|-----------------------| 
G|-------------------|-----------------------| 
D|-4------5------6---|-(6)--7------8----9----| 
A|-2------3------4---|-(4)--5------6----7----| 
E|-------------------|-----------------------| 
 | 
 | 
E|-------------------|-----------------------| 
B|-------------------|-----------------------| 
G|-4~~~---5~~~---6~~~|------7~~----8~~--9~~--| 
D|-------------------|-----------------------| 
A|-------------------|-----------------------| 
E|-------------------|-----------------------| 

Solo ( Myles Toca o ritmo do verso ) 
E|------------------|------------9-11-|--------------------| 
B|------------------|-10gb__12--------|-11b13----pb13r11-9-| 
G|-11~~~--11-11-9---|-----------------|--------------------| 
D|----------------11|-----------------|--------------------| 
A|------------------|-----------------|--------------------| 
E|------------------|-----------------|--------------------| 

E|-------9-11---------------|-------------------14------| 
B|-11b12------9b10-9--------|-10--------17b19~~---17p14-| 
G|-------------------11p9---|---11-11~~-----------------| 
D|-----------------------11-|---------------------------| 
A|--------------------------|---------------------------| 
E|--------------------------|---------------------------| 

E|------------------------------|-------------------------------| 
B|-----------14-----------------|-------------------------------| 
G|-16b18r-14---14-16-16b18~~-14-|-16b17-b17-b17-b17-b17~--14-16-| 
D|------------------------------|-------------------------------| 
A|------------------------------|-------------------------------| 
E|------------------------------|-------------------------------| 

E|--------------------14--------14---------|--------14----------| 
B|----------------------17-17b19--17p14-17-|-17b19----17p14-----| 
G|-16-14--16p14--14h16---------------------|--------------------| 
D|-------------16--------------------------|--------------------| 
A|-----------------------------------------|-play 4x*******-----| 
E|-----------------------------------------|--------------------| 

E|--------16--------|-17----------------| 
B|-19b21----19p16---|-----19p17---------| 
G|------------------|----------18-------| 
D|------------------|-------------------| 
A|-play 4x*******---|-Play 4x*****------| 
E|------------------|-------------------| 

E|-19----------19----------19b21-b21--19---|-19--------------------| 
B|-----21p19-------21p19----------------22-|---22b24---19--19~~----| 
G|----------18----------18-----------------|-------------21--------| 
D|-----------------------------------------|-----------------------| 
A|-----------------------------------------|-----------------------| 
E|-----------------------------------------|-----------------------| 

E|-21b23--21-20-19-16-16-----16--------| 
B|----------------------19p16--19p16---| 
G|----------------------------------18-| 
D|-------------------------------------| 
A|-------------------------------------| 
E|-------------------------------------| 

E|----------------------------------------------------------------| 
B|-19-17-16-17-16-17-16--16-----------------------------17--------| 
G|---------------------18--18-16-18-17-16-----16--16b18---16b18---| 
D|---------------------------------------19-16--16----------------| 
A|----------------------------------------------------------------| 
E|----------------------------------------------------------------| 

E|-14------14----------------------------------| 
B|---17b19---17p14-----------------17b19~~~~~~-| 
G|----------------17p16-14--16--14-------------| 
D|------------------------16--16---------------| 
A|---------------------------------------------| 
E|---------------------------------------------| 

Repete Refrao 

Slash toca isso enquanto myles toca o refrao 
|----------|---------------|---------------|------------------| 
|-17b19~---|-pb19b17~~~~~~-|---------------|------------------| 
|----------|---------------|-16~~~~--------|-16b18~--14-------| 
|----------|---------------|---------------|------------16~~~-| 
|----------|---------------|---------------|------------------| 
|----------|---------------|---------------|------------------| 

Final: 

Slash (Toca sozinho 4x,depois entra Myles ) 
E|-------------------------------| 
B|-------------------------------| 
G|-------------------------------| 
D|-4---2h4-2---2---4--4--2-4-2---| 
A|-----------4---4-------------4-| 
E|-------------------------------| 


Myles parte 1, Toca 2x 
E|---------------------------------| 
B|---------------------------------| 
G|---------------------------------| 
D|-6h7-6-4-6-4-6-4-7---7---6-7-6-4-| 
A|---------------------------------| 
E|---------------------------------| 


Myles parte 2: 
E|---------------------------------| 
B|---------------------------------| 
G|---------------------------------| 
D|-9h10-9-7-9-7-9-7-10--10-9-10-9-7| 
A|---------------------------------| 
E|---------------------------------| 


Myles parte 3: 
E|---------------------------------| 
B|---------------------------------| 
G|-6h8-6---6---6---8---8---6h8-6---| 
D|-------9---9---9---------------9-| 
A|---------------------------------| 
E|---------------------------------| 

Myles parte 4: 
E|------------------------------------| 
B|------------------------------------| 
G|-9h11-9---9---9---11---11--9h11-9---| 
D|--------11--11--11---------------11-| 
A|------------------------------------| 
E|------------------------------------| 
		  

See also:

tabs The Doors - People Are Strange tabs Guns N' Roses - November Rain tabs Lenny Kravitz - American Woman tabs 4 Non Blondes - What's Up? tabs Jack Johnson - Sitting Waiting Wishing tabs The Offspring - Come Out and Play
e-chords

Other versions:

tabs Slash - Standing On The Sun
auto scroll beats size up size down change color hide chords drawings
tab show chords e-chords YouTube Clip e-chords hide all tabs e-chords go to top tab

share