Slash

Shots Fires

Slash

tabs

by  ABELAMIN

save to print version add songbook text version e-mail correct tuner
chordsukulelecavacokeyboardtabbassdrumsharmonicaflute Guitar Pro
close

there isn't a video lesson for this song

chords

Shots Fires

	  		
Intro: 
    Slash 
E|-------------------------------------------------------------------------| 
B|---3---------------------3-2h3p2p0--------3-2h3p2p0----------------------| 
G|-----0---0-----0-----0-------------3p0---------------3p0-----------------| 
D|-------0-----0-----0-----------------------------------------------------| 
A|-2---------4-----1-------------------------------------------------------| 
E|-3---------------------3---------------3---------------------------------| 

    Myles 
E|--------------| 
B|--------------| 
G|--------------| 
D|--------------| 
A|--------------| 
E|-3-1-3-3-1-1--| 
       PM -------| 



Riff 1 

Ambas Guitarras 
E|--------------| 
B|--------------| 
G|-----5p3------| 
D|-5-3-----5-3--| 
A|--------------| x6 
E|--------------| 

E|--------------|-------------------------|-3-| 
B|--------------|-------------------------|-3-| 
G|--------------|-------------------------|-0-| 
D|-5-3--5p3-----|-------------------------|-0-| 
A|----------5p3-|-5-4-3h4p3s1--3-4-3h4p3s1|---| 
E|--------------|-------------------------|---| 



Verso 

    Ambas Guitarras 
E|------------3~-|------------3~-|-6~-------3~-|-----------------| 
B|-3~-5~-x-6~-3~-|-3~-5~-x-6~-3~-|-6~-3~-6~-3~-|-6~-3~-----------| 
G|-3~-5~-x-6~----|-3~-5~-x-6~----|-8~-3~-6~----|-7~-3~-----------| 
D|---------------|---------------|-------------|-----------------| 
A|---------------|---------------|-------------|-------x-3b3.5---| 
E|---------------|---------------|-------------|-----------------| 


Pre-Refrao 

   Ambas Guitarras 
E|--------------| 
B|--------------| 
G|--------------| 
D|--------------| 
A|-5-3-5-5-3-3--| x3 
E|--------------| 

E|--------------| 
B|--------------| 
G|--------------| 
D|--------------| 
A|-5-3-5-5-3----| x1 
E|-----------1--| 

Refrão:

E|-----------------------------------------------------------| 
B|-----------------------------------------------------------| 
G|----33-3/--88-8/--55-5/------------------------------------| 
D|-5/-33-3/--88-8/--55-5/---3-3-----3-----2-2-----2-2--------| 
A|-5/-11-1/--66-6/--33-3/---3-3-----3-----3-3-----3-3--------| 
E|-3/---------------------0-1-1-1-1-1-1-0-0-0-0-0-0-0-0------| 

E|------------------------------------------------------------| 
B|------------------------------------------------------------| 
G|------------------------------------------------------------| 
D|------------------------------------------------------------| 
A|-------------------------5-4-3h4p3s1--3-4-3h4p3s1-----------| 
E|-3-1-3-3-1-1-3-1-3-3-1-1------------------------------------| 
                           |      Slash Toca Sozinho           | 


REPETE RIFF 1, VERSO, PRE-REFRAO, REFRAO 2x, 


Pre-Solo 

E|-------------------------------------------------------------------| 
B|-------------------------------------------------------------------| 
G|-----------------------------------5-5-----5---5-----5-----5---5---| 
D|--8---8-----8---8-----8-----8---8--5-5-----5---5-----5-----5---5---| 
A|--6-6-6-6-6-6-6-6-6-6-6-6-6-6-6-6--7-7-7-7-7-7-7-7-7-7-7-7-7-7-7---| 
E|-------------------------------------------------------------------| 

E|------------------------------------------------------------------------| 
B|------------------------------------------------------------------------| 
G|------------------------------------------------------------------------| 
D|-8-8-----8---7-7-----7-x-5-5-5-5-5-5-5-5-5-5-5-5-5-5-5-5----------------| 
A|-6-6-6-6-6-x-5-5-5-5-5-x-3-3-3-3-3-3-3-3-3-3-3-3-3-3-3-3----------------| 
E|------------------------------------------------------------------------| 
                          PM-----------------------------------------------| 


SOLO ( Tentando Tirar ainda, desculpe )  -  Ritmo: D5, F5, C5, D5, F5, C5, A#5, C5, D5. 

Parte Final do solo 
E|-------------------------| 
B|-------------------------| 
G|-------------------------| 
D|-------------------------| 
A|-5-4-3h4p3s1--3-4-3h4p3s1| 
E|-------------------------| 



REPETE REFRAO, RIFF 1 

Enquanto toca riff 1, outra guitarra toca isso: 
E|--------------------------------------------13s15----------------------| 
B|-15----14----11----8------15-14h15p14----------------------------------| 
G|-17b19-16b18-13b15-10b12--------------15s12----------------------------| 
D|-----------------------------------------------------------------------| 
A|-----------------------------------------------------------------------| 
E|-----------------------------------------------------------------------| 

E|-------18~-------------15~----------------------------------------| 
B|-15--------14----11--------8----/---------------------------------| 
G|-17b19-----16b18-13b15-----10b12/---------------------------0~----| 
D|------------------------------------------------------------0~----| 
A|----------------------------------5-4-3h4p3s1--3-4-3h4p3s1-----5/-| 
E|------------------------------------------------------------3~-3/-| 
		  

Full key step upFull key step up
Half key step upHalf key step up
Half key step downHalf key step down
Full key step downFull key step down
hide glossary

See also:

tabs The Offspring - The Kids Aren't Alright tabs Smashing Pumpkins - Today tabs Guns N' Roses - Don't Cry tabs Blue Oyster Cult - Dont Fear The Reaper tabs 4 Non Blondes - What's Up? tabs Aerosmith - Crazy
e-chords

Other versions:

tabs Slash - Shots Fires
auto scroll beats size up size down change color hide chords drawings
tab show chords e-chords YouTube Clip e-chords hide all tabs e-chords go to top tab

share