Slash

Shadow Life

Slash

tabs

by  HUGO_RODRIGUES

save to print version add songbook text version e-mail correct tuner
chordsukulelecavacokeyboardtabbassdrumsharmonicaflute Guitar Pro
close

there isn't a video lesson for this song

chords

Shadow Life

	  		 

Tuning: Half Step Down 

Clear Intro:  
e|---------------------------------------------------------------------------| 
B|---------5----------------5---------------5--------------------------------| 
G|-----6-----6----------4-----4---4-----6-----6----------5-------5-----------| 
D|---6---6-----6------6---6-----6-----6---6-----6------6---6---6---6---------| 2x 
A|-4---------------------------------------------------------3---------------| 
E|---------------7------------------5-------------4--------------------------| 

Then you stop before the G# part and do this with distortion 
e|----------| 
B|----------| 
G|-----4----| 
D|-2---4----| 
A|-2---2----| 
E|-0--------| 

Main Riff 
e|--------------------------------------------------------------0----| 
B|--------------------------------------------------------------0----| 
G|-------------------------------------------------------------------| 
D|-------------------------------------------------------------------| 
A|-4-3-0-2----------4-3-0-2----------4-3-0-2----------4-3-0-2--------| 
E|----------2-2h3h4----------2-2h3h4----------2-2h3h4----------------| 

e|----------------------------------------------------------------------| 
B|----------------------------------------------------------------------| 
G|------------------------------------------------------------------6/--| 
D|------------------------------------------------------------------6/--| 
A|-4-3-0-2----------4-3-0-2----------4-3-0-2----------------4----2--4/--| 
E|----------2-2h3h4----------2-2h3h4----------2-2h3h4-4--3----2--0------| 

Verse A: 
e|-----------------------------------------------------------0--------| 
B|-----------------------------------------------------------0--------| 
G|----------------------------------------------------------------6/--| 
D|--------------2-2----------------4-4----------------7--9--------6/--| 2x (the second time you don't do the 
A|--------------2-2----------------4-4----------------7--9--------4/--|     B and E strings thing neither the 
E|--0-0-3-2-1-0-0-0----0-0-3-2-1-0-2-2----0-0-3-2-1-0-5--7------------|     C#5 chord) 
 pm ***********        ***********        *********** 


Verse B: (I'm sure you'll know what to do with the chords! palm mute when you think is the right time!) 
e|--------------------------------| 
B|--------------------------------| 
G|-------------------2---4-4-4-4--| 
D|--7---9---11---4---2---4-4-4-4--| 
A|--7---9---11---4---0---2-2-2-2--| 
E|--5---7---9----2----------------| 


Chorus: 
The lead guitar does the intro with distortion! The chords for the Chorus are: 
e|--------------------------------------| 
B|--------------------------------------| 
G|--6-------2-----5-6-------2-------4---| 
D|--6---2---2---6-5-6---2---2---2---4---| 
A|--4---2---0---6-3-4---2---0---2---2---| 
E|------0-------4-------0-------0-------| 


Outro: 
e|---------------------------------------------------------------------| 
B|---------------------------------------------------------------------| 
G|--------------6-6----------------------------------------------------| 
D|--6-6---7-7---6-6---4-4---6-6---7-7-7-7-7-7-7-7-9-9-9-9-10-10-10-10--| 
A|--6-6---7-7---4-4---4-4---6-6---7-7-7-7-7-7-7-7-9-9-9-9-10-10-10-10--| 
E|--4-4---5-5---------2-2---4-4---5-5-5-5-5-5-5-5-7-7-7-7-8--8--8--8---| 
                                 pm ********************************** 


I can't tab the solo, I don't even try xD. The chords are: 
e|--------------------------------------------------------------| 
B|--------------------------------------------------------------| 
G|--6---2----------4--6---2----------4----------6---------------| 
D|--6---2---4---2--4--6---2---4---2--4--7---6---6---4---7---9---| 
A|--4---0---4---2--2--4---0---4---2--2--7---6---4---4---7---9---| 
E|----------2---0-------------2---0-----5---4-------2---5---7---| 

You just have to finish the song from now on. 
Rate this, please! =D 

************************************ 
| pm  palm muted 
| /   slide up 
| \   slide down 
| h   hammer-on 
| p   pull-off 
| ~   vibrato 
| +   harmonic 
| x   Mute note 
| b   Bend 
| pb  Pre-bend 
| br  Bend release 
| pbr Pre-bend release 
| brb Bend release bend 

************************************ 
		  

Full key step upFull key step up
Half key step upHalf key step up
Half key step downHalf key step down
Full key step downFull key step down
hide glossary

See also:

tabs The Offspring - The Kids Aren't Alright tabs Smashing Pumpkins - Today tabs Guns N' Roses - Don't Cry tabs Blue Oyster Cult - Dont Fear The Reaper tabs 4 Non Blondes - What's Up? tabs Aerosmith - Crazy
e-chords

Other versions:

tabs Slash - Shadow Life
auto scroll beats size up size down change color hide chords drawings
tab show chords e-chords YouTube Clip e-chords hide all tabs e-chords go to top tab

share