Slash

Far And Away

Slash

tabs Expert expert

by  DEIVCAVALCANTI

save to print version add songbook text version e-mail correct tuner
chordsukulelecavacokeyboardtabbassdrumsharmonicaflute Guitar Pro
close

there isn't a video lesson for this song

chords

Far And Away

	  		

Tuning: Eb Ab Db Gb Bb eb 




Intro  

eb|-----------------------------------------------------------------------| 
Bb|---------5----------------5----------------3----------------3----------| 
Gb|-------5---5------------5---5------------5---5------------5---5--------| 
Db|-----5-------5--------5-------5--------3-------3--------3-------3------|  
Ab|---7-----------7----7-----------5----3-----------3----3-----------3----| 
Eb|-8----------------6----------------5----------------4------------------| 

eb|------------------------------------------------------| 
Bb|---------5----------------5----------------3----------| 
Gb|-------5---5------------5---5------------5---5--------| 
Db|-----5-------5--------5-------5--------3-------3------|  
Ab|---7-----------7----7-----------5----3-----------3----| 
Eb|-8----------------6----------------5---------------4~-| 


Verse 1 
eb|-----------------------------------------------------------------------| 
Bb|---------5----------------5----------------3----------------3----------| 
Gb|-------5---5------------5---5------------5---5------------5---5--------| 4x 
Db|-----5-------5--------5-------5--------3-------3--------3-------3------|  
Ab|---7-----------7----7-----------5----3-----------3----3-----------3----| 
Eb|-8----------------6----------------5----------------4------------------| 


eb|------------------------------------------------------------------------| 
Bb|---------3----------------5---------------------------------------------| 
Gb|-------3---3------------7---7---------------5---5-----------------------| 
Db|-----3-------3--------5-------5--------5----5h7-5h7---5------5----------| 
Ab|---5-----------5----5-----------5------5h7--------------7-5--5h7-5------| 
Eb|-6----------------7-----------------8-----------------------------------| 

eb|------------------------------------------------------------------------| 
Bb|---------3----------------5----------------5h6-5~-----------------------| 
Gb|-------3---3------------7---7------------5------------------------------| 
Db|-----3-------3--------5-------5--------5--------------------------------| 
Ab|---5-----------5----5-----------5----7----------------------------------| 
Eb|-6----------------7----------------8------------------------------------| 


Chorus 1 

eb|-3~---3~---1~--------3~---3~---1~--------3~---3~---1~-----| 
Bb|-3~---3~---1~---555--3~---3~---1~---555--3~---3~---1~-----| 
Gb|-4~---3~---2~---555--4~---3~---2~---555--4~---3~---2~-----| 
Db|-5~---5~---3~---555--5~---5~---3~---555--5~---5~---3~-----| 
Ab|-5~---5~---3~---333--5~---5~---3~---333--5~---5~---3~-----| 
Eb|-3~---3~---1~--------3~---3~---1~--------3~---3~---1~-----| 

eb|------------------------------------------------------------------------| 
Bb|---------3----------------5-----------------------------8----------8----| 
Gb|-------3---3------------7---7---------------5----5--7/9---9\7--7/9------| 
Db|-----3-------3--------5-------5--------5----5h7-------------------------| 
Ab|---5-----------5----5-----------5------5h7------------------------------| 
Eb|-6----------------7-----------------8-----------------------------------| 


Verse 2 
eb|-----------------------------------------------------------------------| 
Bb|---------5----------------5----------------3----------------3----------| 
Gb|-------5---5------------5---5------------5---5------------5---5--------| 4x 
Db|-----5-------5--------5-------5--------3-------3--------3-------3------|  
Ab|---7-----------7----7-----------5----3-----------3----3-----------3----| 
Eb|-8----------------6----------------5----------------4------------------| 

eb|------------------------------------------------------------------------| 
Bb|---------3----------------5---------------------8---8/10--8-------------| 
Gb|-------3---3------------7---7--------5h7p5--7/9---9---------9\7-5-7-----| 
Db|-----3-------3--------5-------5-----------------------------------------| 
Ab|---5-----------5----5-----------5---------------------------------------| 
Eb|-6----------------7-----------------------------------------------------| 

eb|------------------------------------------------------------------------| 
Bb|---------3----------------5----------------5h6-5h6-5~-------------------| 
Gb|-------3---3------------7---7------------5------------------------------| 
Db|-----3-------3--------5-------5--------5--------------------------------| 
Ab|---5-----------5----5-----------5----7----------------------------------| 
Eb|-6----------------7----------------8------------------------------------| 

Chorus 2 

eb|-3~---3~---1~--------3~---3~---1~--------3~---3~---1~-----| 
Bb|-3~---3~---1~---555--3~---3~---1~---555--3~---3~---1~-----| 
Gb|-4~---3~---2~---555--4~---3~---2~---555--4~---3~---2~-----| 
Db|-5~---5~---3~---555--5~---5~---3~---555--5~---5~---3~-----| 
Ab|-5~---5~---3~---333--5~---5~---3~---333--5~---5~---3~-----| 
Eb|-3~---3~---1~--------3~---3~---1~--------3~---3~---1~-----| 

eb|-----------------------------------| 
Bb|---------3----------------5--------| 
Gb|-------3---3------------7---7------| 
Db|-----3-------3--------5-------5----| 
Ab|---5-----------5----5-----------5--| 
Eb|-6----------------7----------------| 

Solo 1 

eb|-----------5--------------------------------------------------------------| 
Bb|-------------8---------------------------------------6-8------------------| 
Gb|-----5-7b------7pbr-5---5h7-------5h7-----------5-7b-----7pbr-5---5h7/9~--| 
Db|-5h7------------------7-----5h7-------6~----5h7-----------------7---------| 
Ab|--------------------------------------------------------------------------| 
Eb|--------------------------------------------------------------------------| 

eb|-5---------------------------------------------------------------------------------| 
Bb|-5-8----------8b-8brb-6-8b~--8brb-5brb/8~--6h8p6-----------------------------------| 
Gb|-----9\7--5--------------------------------------9---------------------------------| 
Db|------------7--------------------------------------10----10s12~-------10-12b-12-10-| 
Ab|------------------------------------------------------10--------10h12--------------| 
Eb|-----------------------------------------------------------------------------------| 

eb|-----------------------------------------| 
Bb|-------------------15brb~--13h15---------| 
Gb|-------12h14-17-14---------------/14-17~-| 
Db|-12s14-----------------------------------| 
Ab|-----------------------------------------| 
Eb|-----------------------------------------| 

eb|-------15b--15-13-----------15-------------15---------------15b~-15pbr-13-15b--| 
Bb|------------------17-15b-18----15pbr----------15b------------------------------| 
Gb|-14-17-------------------------------17-14---------17-14h17--------------------| 
Db|-------------------------------------------------------------------------------| 
Ab|-------------------------------------------------------------------------------| 
Eb|-------------------------------------------------------------------------------| 

eb|--------------8----8----8----8----8----8----8------------------------------------| 
Bb|-15pbr-13--11---11---11---11---12---12---12---12-13------------------------------| 
Gb|-----------------------------------------------------12h14p12--------------------| 
Db|--------------------------------------------------------------12h14p12-10h12p12--| 
Ab|---------------------------------------------------------------------------------| 
Eb|---------------------------------------------------------------------------------| 

Verse 3 

eb|------------------------------------------------------------------------| 
Bb|----------7----------------7----------------5----------------5----------| 
Gb|--------7---7------------7---7------------7---7------------7---7--------| 4x 
Db|------7-------7--------7-------7--------5-------5--------5-------5------|  
Ab|----9-----------9----9-----------9----5-----------5----5-----------5----| 
Eb|-10----------------8----------------7----------------6------------------| 

eb|----------------------------------------------| 
Bb|---------5-----------------7---------5-5555---| 
Gb|-------5---5-------------9---9-------5-5555---| 
Db|-----5-------5---------7-------9-----5-5555---| 
Ab|---7-----------7-----7-----------7---7-7777---| 
Eb|-8-----------------9--------------------------| 


Chorus 3 

eb|-5----5----3---------5----5----3---------5----5----3------| 
Bb|-5----5----3----777--5----5----3----777--5----5----3------| 
Gb|-6----5----4----777--6----5----4----777--6----5----4------| 
Db|-7----7----5----777--7----7----5----777--7----7----5------| 
Ab|-7----7----5----555--7----7----5----555--7----7----5------| 
Eb|-5----5----3---------5----5----3---------5----5----3------| 


Solo 2 
		  

See also:

tabs Live - Lightning Crashes tabs R.E.M. - Losing my religion tabs Aerosmith - I Don't Want To Miss A Thing tabs Blue Oyster Cult - Dont Fear The Reaper tabs Cheap Trick - The Flame tabs Guns N' Roses - Estranged
e-chords

Other versions:

tabs Slash - Far And Away
auto scroll beats size up size down change color hide chords drawings
tab show chords e-chords YouTube Clip e-chords hide all tabs e-chords go to top tab

share