Slash

Civil War

Slash

tabs Easy easy

by  EDUCASTILHO

save to print version add songbook text version e-mail correct tuner
chordsukulelecavacokeyboardtabbassdrumsharmonicaflute Guitar Pro
close

there isn't a video lesson for this song

chords

Civil War

	  		Intro 

 
---------------------------------------------------------------------- 
---------------------------------------------------------------------- 
-----------------0-------------------------------0-------------------- 
---------2-----------2-------2-----------2-----------2-------0-------- 
-----2-------2-----------2-----------2-------2-----------0h2---------- 
-0-------------------------------0------------------------------------ 
 


 
---------------------------------------------------------------------- 
---------------------------------------------------------------------- 
-----------------0-------------------------------0-------------------- 
---------0-----------0-------0-----------0-----------0-------0-------- 
-----2-------2-----------2-----------2-------2-----------0h2---------- 
-3-------------------------------3------------------------------------ 
 


 
---------------------------------------------------------------------- 
---------------------------------------------------------------------- 
-----------------0-------------------------------0-------------------- 
---------2-----------2-------2-----------2-----------2-------0-------- 
-----2-------2-----------2-----------2-------2-----------0h2---------- 
-0-------------------------------0------------------------------------ 
 

 
---------------------------------------------------------------------- 
---------------------------------------------------------------------- 
-----------------0-------------------------------2---0-------0-------- 
---------0-----------0-------0-----------0---------------0h2---------- 
-----2-------2-----------2-----------0-------0------------------------ 
-3-------------------------------2------------------------------------ 
 


 
---------------------------------------------------------------------- 
---------------------------------------------------------------------- 
-----------------0-------------------------------0-------------------- 
---------2-----------2-------2-----------2-----------2-------0-------- 
-----2-------2-----------2-----------2-------2-----------0h2---------- 
-0-------------------------------0------------------------------------ 
 


 
---------------------------------------------------------------------- 
---------------------------------------------------------------------- 
-----------------0-------------------------------0-------------------- 
---------0-----------0-------0-----------0-----------0-------0-------- 
-----2-------2-----------2-----------2-------2-----------0h2---------- 
-3-------------------------------3------------------------------------ 
 


 
---------------------------------------------------------------------- 
---------------------------------------------------------------------- 
-----------------0-------------------------------0-------------------- 
---------2-----------2-------2-----------2-----------2-------0-------- 
-----2-------2-----------2-----------2-------2-----------0h2---------- 
-0-------------------------------0------------------------------------ 
 


 
---------------------------------------------------------------------- 
---------------------------------------------------------------------- 
-----------------0-------------------------------2---0-------0-------- 
---------0-----------0-------0-----------0---------------0h2---------- 
-----2-------2-----------2-----------0-------0------------------------ 
-3-------------------------------2------------------------------------ 
 


verse 1 

 
---------------------------------------------------------------------- 
---------------------------------------------------------------------- 
-----------------0-------------------------------0-------------------- 
---------2-----------2-------2-----------2-----------2-------0-------- 
-----2-------2-----------2-----------2-------2-----------0h2---------- 
-0-------------------------------0------------------------------------ 
 


 
---------------------------------------------------------------------- 
---------------------------------------------------------------------- 
-----------------0-------------------------------0-------------------- 
---------0-----------0-------0-----------0-----------0-------0-------- 
-----2-------2-----------2-----------2-------2-----------0h2---------- 
-3-------------------------------3------------------------------------ 
 


 
---------------------------------------------------------------------- 
---------------------------------------------------------------------- 
-----------------0-------------------------------0-------------------- 
---------2-----------2-------2-----------2-----------2-------0-------- 
-----2-------2-----------2-----------2-------2-----------0h2---------- 
-0-------------------------------0------------------------------------ 
 


 
---------------------------------------------------------------------- 
---------------------------------------------------------------------- 
-----------------0-------------------------------2---0-------0-------- 
---------0-----------0-------0-----------0---------------0h2---------- 
-----2-------2-----------2-----------0-------0------------------------ 
-3-------------------------------2------------------------------------ 
 


 
-----------------0---------------------------------------------------- 
---------------------0-------0-------------------0-------------------- 
-------------------------0---------------------------0---------------- 
---------2-------------------------------2---------------2---0-------- 
-----2-------2-----------------------2-------2------------------------ 
-0-------------------------------0------------------------------------ 
 


 
---------------------------------------------------------------------- 
---------------------------------1---0-------0-------0---------------- 
-----------------0-------0---0-----------0h2-----0-----------0-------- 
---------0-----------0-----------------------------------0h2---------- 
-----2-------2-------------------------------------------------------- 
-3-------------------------------------------------------------------- 
 


 
---------------------------------------------------------------------- 
---------------------------------------------------------------------- 
-----------------0-------------------------------0-------------------- 
---------2-----------2-------2-----------2-----------2-------0-------- 
-----2-------2-----------2-----------2-------2-----------0h2---------- 
-0-------------------------------0------------------------------------ 
 


 
---------------------------------------------------------------------- 
---------------------------------------------------------------------- 
-----------------0-------------------------------2---0-------0-------- 
---------0-----------0-------0-----------0---------------0h2---------- 
-----2-------2-----------2-----------0-------0------------------------ 
-3-------------------------------2------------------------------------ 
 


verse 2 

 
---------------------------------------------------------------------- 
---------------------------------------------------------------------- 
-----------------0-------------------------------0-------------------- 
---------2-----------2-------2-----------2-----------2-------0-------- 
-----2-------2-----------2-----------2-------2-----------0h2---------- 
-0-------------------------------0------------------------------------ 
 


 
-------------------------------------0-------0------------------------ 
---------------------------------5-------3---------------------------- 
-----------------0-------------------------------4\2p0---2---0-------- 
---------0-----------0-------0---------------------------------------- 
-----2-------2-----------2-------------------------------------------- 
-3-------------------------------------------------------------------- 
 


 
---------------------------------------------------------------------- 
---------------------------------------------------------------------- 
-----------------0-------------------------------0-------------------- 
---------2-----------2-------2-----------2-----------2-------0-------- 
-----2-------2-----------2-----------2-------2-----------0h2---------- 
-0-------------------------------0------------------------------------ 
 


 
---------------------------------------------------------------------- 
---------------------------------------------------------------------- 
-----------------0-------------------------------2---0-------0-------- 
---------0-----------0-------0-----------0---------------0h2---------- 
-----2-------2-----------2-----------0-------0------------------------ 
-3-------------------------------2------------------------------------ 
 


 
---------------------------------------------------------------------- 
-----------------5-------------------------------5---4---------------- 
---------2-----------2-------2-----------2-------------------2-------- 
-------------2-----------5-----------4-------4-----------4------------ 
-0-------------------------------0------------------------------------ 
---------------------------------------------------------------------- 
 


 
-----------------3---0------------------------------------------------ 
-----------------------------5-------------------5---4---------------- 
---------2-------------------------------2---------------------------- 
-----5-------5-----------5-----------4-------4-----------4---2-------- 
-0-------------------------------0------------------------------------ 
---------------------------------------------------------------------- 
 


Chorus 1 

Em  / G  / 
Em  / G 'D/F#' / 
Em  / G  / 
Em  / G 'D/F#' / 


  'Em'      ''     '/' 
 
-0---------3-------2-------- 
-0---------3-------3-------- 
-0---------0-------2-------- 
-2---------0-------0-------- 
-2---------2-------0-------- 
-0---------3-------2-------- 
 


 
---------------------------------------------------------------------- 
---------------------------------------------------------------------- 
---------2-----4---------4-----5---------5-----7-----7---7/9-9\-0----- 
-2-------2-----4---------4-----5---------5-----7-----7---7/9-9\------- 
-0---0-0---0-0-------0-0---0-0-------0-0---0-0---------0-------------- 
---------------------------------------------------------------------- 
 
       x x   x x       x x   x x       x x   x x         x 


Solo 1 

 
--------0------0---3'----0------0------------------------------------- 
----------0-3'---0-3'------0-3'---0----------------------------------- 
-2(4)-------------------------------0--------------------------------- 
---------------------------------------------------------------------- 
---------------------------------------------------------------------- 
---------------------------------------------------------------------- 
 


 
-3~--------3-3-2h3p2p0-2-0h2p0---0------------------------------------ 
-------------------------------3---3-0h3p0---0------------------------ 
-------------------------------------------2---2/3\2p0---2-0---------- 
-------------------------------------------------------2-----2p0------ 
---------------------------------------------------------------------- 
---------------------------------------------------------------------- 
 


 
--------0------0---3'----0------0------------------------------------- 
----------0-3'---0---------0-3'---0----------------------------------- 
-2(4)-------------------------------0--------------------------------- 
---------------------------------------------------------------------- 
---------------------------------------------------------------------- 
---------------------------------------------------------------------- 
 


 
-3-------3-----------2-0---------------------------------------------- 
-------0---0---0---------3-------------------------------------------- 
-----0-------0-----2-------2---0-------------------------------------- 
-----------------0-----------0---------------------------------------- 
---------------------------------------------------------------------- 
---------------------------------------------------------------------- 
 


 
--------0------0---3'----0------0------------------------------------- 
----------0-3'---0-3'------0-3'---0----------------------------------- 
-2(4)-------------------------------0--------------------------------- 
---------------------------------------------------------------------- 
---------------------------------------------------------------------- 
---------------------------------------------------------------------- 
 


 
-------------------0---0---------------------------------------------- 
-----3-3-2/3-3-3-----3------------------------------------------------ 
-3/4-----3/4-4---4-------4\2p0---2--0--------------------------------- 
-------------------------------2-------2p0---------------------------- 
-------------------------------------------2-------------------------- 
---------------------------------------------------------------------- 
 


 
--------0------0---3'----0------0-0-------------3-3-3-2-------2-2-2-2- 
----------0-3'---0---------0-3'---0-0-----------3-3-3-3-------3-3-3-3- 
--------------------------------------0---------0-0-0-2-------2-2-2-2- 
--------------------------------------0---------0-0-0-0-------0-0-0-0- 
--------------------------------------2---------2-2-2----------------- 
-0------------------------------------3---------3-3-3-2-------2-2-2-2- 
 


verse 3 

 
---------------------------------------------------------------------- 
-----------------3-------------------------------3-------------------- 
-0-------------------0-------0-----------------------0-------0-------- 
-0-----------------------0-------------------------------4------------ 
-2-------------------------------2------------------------------------ 
-3-------------------------------------------------------------------- 
 


 
---------------------------------------------------------------------- 
---------------------------------------------------------------------- 
-----------------0-------------------------------0-------------------- 
---------2-----------2-------2-----------2-----------2-------0-------- 
-----2-------2-----------2-----------2-------2-----------0h2---------- 
-0-------------------------------0------------------------------------ 
 


 
---------------------------------------------------------------------- 
-----------------3-------------------------------3-------------------- 
-------------0-------0-------0-----------0-----------0-------0-------- 
---------0---------------0-----------4-------4-----------4------------ 
-----2---------------------------2------------------------------------ 
-3-------------------------------------------------------------------- 
 


 
---------------------------------------------------------------------- 
---------------------------------------------1-----------3------------ 
-----------------0-----------------------0-----------2-------0-------- 
---------2-----------2-------2-------2-----------0-------------------- 
-----2-------2-----------2-------3------------------------------------ 
-0-------------------------------------------------------------------- 
 


 
---------------------------------------------------------------------- 
-----------------3-------------------------------3-------------------- 
-0-----------0-------0-------0-----------0-----------0-------0-------- 
-0-------0---------------0-----------4-------4-----------4------------ 
-2-------------------------------2------------------------------------ 
-3-------------------------------------------------------------------- 
 


 
---------------------------------------------------------------------- 
---------------------------------------------------------------------- 
-----------------0-------------------------------0-------------------- 
---------2-----------2-------2-----------2-----------2-------0-------- 
-----2-------2-----------2-----------2-------2-----------0h2---------- 
-0-------------------------------0------------------------------------ 
 


 
---------------------------------------------------------------------- 
-----------------3-------------------------------3-------------------- 
-0-----------0-------0-------0-----------0-----------0-------0-------- 
-0-------0---------------0-----------4-------4-----------4------------ 
-2-------------------------------2------------------------------------ 
-3-------------------------------------------------------------------- 
 


 
---------------------------------0---0---0-------2---2---2---2-------- 
---------------------------------1---1---1-------3---3---3---3-------- 
-----------------0-------0---0---0---0---0-------2---2---2---2-------- 
-2-------2-----------2---2---2---2---2---2-------0---0---0---0-------- 
-2-----------2-----------2---2---3---3---3-------0---0---0---0-------- 
-0-----------------------0---0---------------------------------------- 
 


Chorus 2 

G / Bm / Em / Em / 
G / Bm / Em / C D / 
G / Bm / Em / Em / 
G / D / Em / C D / 



  'Em'    ''     'Bm'   ''   '' 
 
-0-------3-------7------0-----2--- 
-0-------3-------7------1-----3--- 
-0-------0-------7------0-----2--- 
-2-------0-------9------2-----0--- 
-2-------2-------9------3-----0--- 
-0-------3-------7---------------- 
 


Solo 2 

 
---------------------------------------------------------------------- 
-10(12)~~~------------(12)(10)p8-10.--8.--7-8-7h8p7---7--------------- 
----------------------------------------------------9---9---7~~~--\\\- 
----------------------------------------------------------9----------- 
---------------------------------------------------------------------- 
-----------0---------------------------------------------------------- 
 


 
---------------------------------------------------------------------- 
-------3-------------------------------------------------------------- 
-2/4-----4\2p0---2-0---0-2(3)~~~-------------------------------------- 
---------------------2------------------------------------------------ 
---------------------------------------------------------------------- 
---------------------------------------------------------------------- 
 


 
---------------------------------------------------------------------- 
-5--p3-\-1---3---1--h3p1p0-------------------------------------------- 
---------------------------2---0-------------------------------------- 
---------------------------------------------------------------------- 
---------------------------------------------------------------------- 
---------------------------------------------------------------------- 
 


 
---------------5------------------------------------------------------ 
-8(10)~------------8p7p5---7(8)-----7~-------------------------------- 
---------------------------------------------------------------------- 
---------------------------------------------------------------------- 
---------------------------------------------------------------------- 
---------------------------------------------------------------------- 
 


 
-------------8(10)--------------8---7---8---7---h8p7p5---7------------ 
-7h8p7p5---5-------------------------------------------8---8---------- 
---------7---------------------------------------------------9~------- 
---------------------------------------------------------------------- 
---------------------------------------------------------------------- 
---------------------------------------------------------------------- 
 


 
-------------------------10------------------------10----------------- 
---------10(12)~------------(12)(10)-----8-10-/-12------15(17)~------- 
-7-------------------------------------------------------------------- 
-----9---------------------------------------------------------------- 
---------------------------------------------------------------------- 
---------------------------------------------------------------------- 
 


 
-12------------------------------------------------------------------- 
----15-12------------------------------------------------------------- 
----------14(15)(14)p12----------------------------------------------- 
------------------------14.-14~------12------------------------------- 
----------------------------------------14\12---p10-12-10-12(14)------ 
---------------------------------------------------------------------- 
 


 
---------------------------------------------------------------------- 
---------------------------------------------------------------------- 
---------------------------------------------------------------------- 
---------------------------------------------------------------------- 
-12-10---------------------------------------------------------------- 
-------12-\\\--------------------------------------------------------- 
 


 
---------------------------------------------------------------------- 
---------------------------------------------------------------------- 
-----------------0-------------------------------0-------------------- 
---------2-----------2-------2-----------2-----------2-------0-------- 
-------------2-----------2-----------2-------2-----------0h2---------- 
-0-------------------------------0------------------------------------ 
 


 
---------------------------------------------------------------------- 
---------------------------------1---0-------0------------------------ 
-----------------0-----------0-----------2-----------0---------------- 
---------0---------------0-----------------------0h2-----2---0-------- 
-----2-------2-------2------------------------------------------------ 
-3-------------------------------------------------------------------- 
 


 
---------------------------------------------------------------------- 
---------------------------------------------------------------------- 
-----------------0-------------------------------0-------------------- 
---------2-----------2-------2-----------2-----------2-------0-------- 
-----2-------2-----------2-----------2-------2-----------0h2---------- 
-0-------------------------------0------------------------------------ 
 


 
-----------------3---3---3---3-----------2---2---2---2---2---0-------- 
-----------------3---3---3---3-----------3---3---3---3---3---0-------- 
---------0---0---0---0---0---0-----------2---2---2---2---2---0-------- 
-------------0---0---0---0---0---0-------0---0---0---0---0---0-------- 
-----------------2---2---2---2---0------------------------------------ 
-3---------------3---3---3---3---------------------------------------- 
 


verse 4 ~ verse 2 

Chorus 3 ~ Chorus 1 


Solo 3 

 
--------0------0---3'----0------0------------------------------------- 
----------0-3'---0-3'------0-3'---0----------------------------------- 
-2(4)-------------------------------0--------------------------------- 
---------------------------------------------------------------------- 
---------------------------------------------------------------------- 
---------------------------------------------------------------------- 
 


 
---------0---3-0-----0------------------------------------------------ 
-----------0-----3/5---5\3p0---3-----0-------------------------------- 
-2~--------------------------4-----4-----4\2p0---0-------------------- 
---------------------------------------------------------------------- 
---------------------------------------------------------------------- 
---------------------------------------------------------------------- 
 


 
--------0------0---3'----0-------0------------------------------------ 
----------0-3'---0-3'------0-3/5---0---------------------------------- 
-2(4)----------------------------------------------------------------- 
---------------------------------------------------------------------- 
---------------------------------------------------------------------- 
---------------------------------------------------------------------- 
 


 
-3~----5-3-5(7)---5.--3-2-3-2--------2-------------------------------- 
------------------------------5(7)-----(7)(5)-3----------------------- 
---------------------------------------------------------------------- 
---------------------------------------------------------------------- 
---------------------------------------------------------------------- 
---------------------------------------------------------------------- 
 


 
-------0-------0-0--------0-0---3--0---------------------------------- 
-5~------0-3'------3(5)-------0-------3--0---------------------------- 
-------------------------------------------2(3)(2)p0-2-0-------------- 
---------------------------------------------------------------------- 
---------------------------------------------------------------------- 
---------------------------------------------------------------------- 
 


 
---------------------------------------------------------------------- 
-------3-------------------------------------------------------------- 
-2-/-4---4\2p0---2---0------------------------------------------------ 
---------------2---2-------2p0---------------------------------------- 
-------------------------------2-------------------------------------- 
---------------------------------------------------------------------- 
 


 
--------0------0---3'----0-------0-------------3-3-3-2---2---2-2-2-2-- 
----------0-3'---0---------0-3/5---0-----------3-3-3-3---3---3-3-3-3-- 
-------------------------------------0---------0-0-0-2---2---2-2-2-2-- 
-------------------------------------0---------0-0-0-0---0---0-0-0-0-- 
-------------------------------------2---------2-2-2------------------ 
-0-----------------------------------3---------3-3-3-2---2---2-2-2-2-- 
 


 
---------------------------------------------------------------------- 
---------------------------------------------------------------------- 
------------------4---------------5---------------7---------7--------- 
-2----------------4---------------5---------------7---------7--------- 
-0-----0-0-0-0-0--0-0-0-0-0-0-0-0-0-0-0-0-0-0-0-0-0-0-0-0-0-0-0-0----- 
---------------------------------------------------------------------- 
 
         x x x x x    x x x x x x x   x x x x x x x   x x x x   x x 

 
-------------------------------0---0-0-------------------------------- 
---------------------------0-0-1---1-1-------------------------------- 
-10---------10-------------0-0-0---0-0-------------------------------- 
-10---------10-----10~---\-0-0-2---2-2-------------------------------- 
-0--0-0-0-0-0--0-0-10~---\-----3---3-3-------------------------------- 
---------------------------------------------------------------------- 
 
      x x x x    x x 


horus 4 ~ horus 2 


Solo 4 

 
----------7-10-7----7-10-7----7-10-7----7-10-7----7-10-7----7-10------ 
-10(12)---------10'-------10'-------10'-------10'-------10'----------- 
---------------------------------------------------------------------- 
---------------------------------------------------------------------- 
---------------------------------------------------------------------- 
---------------------------------------------------------------------- 
 


 
-7----7-10-7----7-10-7h10p7----7-------------------------------------- 
--10'-------10'-------------10---10(11)(10)p8---10.-8.-10~------------ 
----------------------------------------------9----------------------- 
---------------------------------------------------------------------- 
---------------------------------------------------------------------- 
---------------------------------------------------------------------- 
 


 
---------------------------------------------------------------------- 
-10p8-----8.-10.-8--10--8h10p8\7---8---7h8p7---7---------------------- 
------9-9------------------------9-----------9---9p7-9p7-------------- 
---------------------------------------------------------9.----------- 
---------------------------------------------------------------------- 
---------------------------------------------------------------------- 
 


 
---------------------------------------------------------------------- 
---------------------------------------------------------------------- 
-7-------------------------------------------------------------------- 
---9\7p5-7p5---5-7p5-----5-------------------------------------------- 
-------------7-------7-5---7p5---7p5-----5---------------------------- 
-------------------------------7-----7p5---7p6p5\3-5-5h6p5p3p0-5-3-2'- 
 


 
---------------------------------------------------------------------- 
---------------------------------------------------------------------- 
---------------------------------------------------------------------- 
---0---2-------2-------------------2-------2-----2---0-------0-------- 
--2----------------------2p1p0-----------------------------2-----2---- 
-0---------0---------0---------3'------0------------------------------ 
 


 
---------------------------------------------------------------------- 
---------------------------------------------------------------------- 
---------------------2~----p0-2-------0------3---0-------------------- 
---------0-h-2--------------------2----------------------------------- 
---------------------------------------------------------------------- 
-3'--0-----------0---------------------------------------------------- 
 


 
---------------------------------------------------------------------- 
-----0-----0-----0-----0-----0-----0-----0-----0-----0-----0---------- 
-3h4---3h4---3h4---3h4---3h4---3h4---3h4---3h4---3h4---3h4------------ 
---------------------------------------------------------------------- 
---------------------------------------------------------------------- 
---------------------------------------------------------------------- 
 


 
---------------------------------------------------------------------- 
---------------------------------------------------------------------- 
-3p2p0---2---0-------------------------------------------------------- 
-------2---------2p0-----2---0---------------------------2------------ 
---------------------2-----------2p1p0---2---1h2p1p0------------------ 
---------------------------------------3-------------3---------------- 
 


 
---------------------------------------------------------------------- 
---------------------------------------------------------------------- 
---------------------------------------------------------------------- 
-----5'---5'-----5'-----5'---5'-----7(9)(7)-5-7---5------------------- 
--------7----7--------7----7----7-0-------------7--------------------- 
-0-------------0------------------------------------------------------ 
 


 
---------------------------------------------------------------------- 
-------------------------8(10)---8-----------8(10)---8---------------- 
-----7-7---------------x-----------9---7-9-------------9---7-9-------- 
-7/9-----9\7p5-7---5h7---------------9-----9-------------9-----9------ 
-----------------7---------------------------------------------------- 
---------------------------------------------------------------------- 
 


 
--------------------------10----------12-----------------8------------ 
-10(12)---8-10-8-10(12)------10(12)------(12)(10)p8-10---------------- 
-------------------------------------------------------9-------------- 
---------------------------------------------------------------------- 
---------------------------------------------------------------------- 
---------------------------------------------------------------------- 
 


 
-10(12)~---10(12)~---10(12)~---10(12)~---10(12)~---10-7-10-7h10p7----- 
---------------------------------------------------------------------- 
---------------------------------------------------------------------- 
---------------------------------------------------------------------- 
---------------------------------------------------------------------- 
---------------------------------------------------------------------- 
 


 
--------------------------------------------------------------------7- 
-10(12)(10)p8-10~-----8~----8--10--8--10--8\7--h8--7-h8p7---------8--- 
--------------------9-------------------------------------9---7-9----- 
------------------------------------------------------------9--------- 
---------------------------------------------------------------------- 
---------------------------------------------------------------------- 
 


 
-10---------10-------------------------------------------------------- 
----8---7-8----8-7-----10-8-7---7------------------------------------- 
------9------------9-7--------9---9-7\5-7-5-4-h5p4-------------------- 
---------------------------------------------------7--5--4-h5p4------- 
----------------------------------------------------------------7----- 
-------------------------------------------------------------------7-- 
 


 
---------------------------------------------------------------------- 
---------------------------------------------------------------------- 
---------------------------------------------------------------------- 
-----5---5-5---------------------------------------------------------- 
-5h7---7-----7---7-7-7---7---7---------------------------------------- 
---------------0-------0---0---0-------------------------------------- 
 


 
---------------------------------------------------------------------- 
---------------------------------------------------------------------- 
---------------------------------------------------------------------- 
---------5---5-5------------------------------------------------------ 
-7---7-----7-----7---7---7-------------------------------------------- 
---0---0-----------0---0---0------------------------------------------ 
 


 
---------------------------------------------------------------------- 
---------------------------------------------------------------------- 
---------------------------------------------------------------------- 
---------------------------------------------------------------------- 
-7/9---9/10---10---10---7---5h7---7---7---7---7p5-5-5\4---4\3---3\2--- 
-----0------0----0----0---0-----0---0---0---0-----------0-----0-----0- 
 


 
---------------------------------------------------------------------- 
---------------------------------------------------------------------- 
----------------------------------------------------------0----------- 
--------------------0h2---2-----2-----2-----2-----------0-------0----- 
-2\1---0---0----------------------------------2---2-----------2------- 
-----3---3---3'-0-0-----0-----0-----0-----0-----0---3-------3--------- 
 


 
---------------------------------------------------------------------- 
---------------------------------------------------------------------- 
---------------------------0-----------0------------------------------ 
---0-----0-----------2/4-----4\2---2/4---4\2-0------------------------ 
-------2---2-------2---------------------------0---------------------- 
-3---3-------3p2-0---------------0------------------------------------ 
 


 
-------------------------2-0h2p0-------------------------------------- 
-------1-----1-------3-----------3------------------------------------ 
-----0-----0---0---2---2------------2-------2------------------------- 
---2-----2-------0----------------------0----------------------------- 
-3-------------------------------------------------------------------- 
---------------------------------------------------------------------- 
		  

Full key step upFull key step up
Half key step upHalf key step up
Half key step downHalf key step down
Full key step downFull key step down
hide glossary

See also:

tabs The Offspring - The Kids Aren't Alright tabs Smashing Pumpkins - Today tabs Guns N' Roses - Don't Cry tabs Blue Oyster Cult - Dont Fear The Reaper tabs 4 Non Blondes - What's Up? tabs Aerosmith - Crazy
e-chords

Other versions:

tabs Guns N' Roses - Civil War tabs Slash - Civil War tabs Guns N' Roses - Civil war (ver. 2)
auto scroll beats size up size down change color hide chords drawings
tab show chords e-chords YouTube Clip e-chords hide all tabs e-chords go to top tab

share