Slash

Bad Rain

Slash

tabs Expert expert

by  RENEJUNIOR

save to print version add songbook text version e-mail correct tuner
chordsukulelecavacokeyboardtabbassdrumsharmonicaflute Guitar Pro
close

there isn't a video lesson for this song

chords

Bad Rain

	  		
Afinação: Db Ab Db Gb Bb eb 
         
Slash: Guitarra Solo 
Myles: Guitarra Base 

Verso:      

Slash & Myles: 
eb|------------------------------| 
Bb|------------------------------| 
Gb|------------------------------| 
Db|------------------------------| 
Ab|-0-2-3-2-0---7---10-9-8---3---| x7 
Db|-0-2-3-2-0---7---10-9-8---3---| 

eb|------------------------------| 
Bb|------------------------------| 
Gb|------------------------------| 
Db|--------------------------10--| 
Ab|-0-2-3-2-0---7---10-9-8-10----| 
Db|-0-2-3-2-0---7---10-9-8-10----| 


Pré-Refrão: 

Slash & Myles: 
eb|--------------------------------------| 
Bb|--------------------------------------| 
Gb|--------------------------------------| 
Db|--------------------------------------| 
Ab|-7-7-7-7-7-7-7-7-7-7-7-7-7-10-10-10---| 
Db|-7-7-7-7-7-7-7-7-7-7-7-7-7-10-10-10---| 


Refrão: 

Slash: 
eb|-------------------------------------| 
Bb|-------------------------------------| 
Gb|---------------------3---------------| 
Db|---3-------3-----x---3---------------| 
Ab|-0------3H5--3H5-x-0h1-3-------------| x3 
Db|-0---------------------3-0-2-3-2-----| 

eb|-------------------------------------| 
Bb|-------------------------------------| 
Gb|---------------------3---------------| 
Db|---3-------3-----x---3---------------| 
Ab|-0------3H5--3H5-x-0h1-3-------------|  
Db|-0---------------------3-0-2-3-2-----| 

Myles: 
eb|-------------------------------------| 
Bb|-------------------------------------| 
Gb|-------------------------------------| 
Db|-------------------------------------| 
Ab|-0-7-5-7-8-3-------------------------| x3 
Db|-0-7-5-7-8-3--------0-2-3-2----------| 

eb|-------------------------------------| 
Bb|-------------------------------------| 
Gb|-------------------3-5---------------| 
Db|-0-7-----3-----x---3-5---------------| 
Ab|-0-7-3H5---3H5-x-0h1-3---------------|  
Db|-0-----------------------------------| 


Verso:      

Slash & Myles: 
eb|--------------------------------| 
Bb|--------------------------------| 
Gb|--------------------------------| 
Db|--------------------------------| 
Ab|-0-2-3-2-0---7---10-9-8---3-----| x7 
Db|-0-2-3-2-0---7---10-9-8---3-----| 

eb|------------------------------| 
Bb|------------------------------| 
Gb|------------------------------| 
Db|--------------------------10--| 
Ab|-0-2-3-2-0---7---10-9-8-10----| 
Db|-0-2-3-2-0---7---10-9-8-10----| 


Pré-Refrão: 

Slash & Myles: 
eb|--------------------------------------| 
Bb|--------------------------------------| 
Gb|--------------------------------------| 
Db|--------------------------------------| 
Ab|-7-7-7-7-7-7-7-7-7-7-7-7-7-10-10-10---| 
Db|-7-7-7-7-7-7-7-7-7-7-7-7-7-10-10-10---| 


Refrão: 

Slash: 
eb|-------------------------------------| 
Bb|-------------------------------------| 
Gb|---------------------3---------------| 
Db|---3-------3-----x---3---------------| 
Ab|-0------3H5--3H5-x-0h1-3-------------| x3 
Db|-0---------------------3-0-2-3-2-----| 

eb|-------------------------------------| 
Bb|-------------------------------------| 
Gb|---------------------3---------------| 
Db|---3-------3-----x---3---------------| 
Ab|-0------3H5--3H5-x-0h1-3-------------|  
Db|-0---------------------3-0-2-3-2-----| 

Myles: 
eb|-------------------------------------| 
Bb|-------------------------------------| 
Gb|-------------------------------------| 
Db|-------------------------------------| 
Ab|-0-7-5-7-8-3-------------------------| x3 
Db|-0-7-5-7-8-3--------0-2-3-2----------| 

eb|-------------------------------------| 
Bb|-------------------------------------| 
Gb|-------------------3-5---------------| 
Db|-0-7-----3-----x---3-5---------------| 
Ab|-0-7-3H5---3H5-x-0h1-3---------------|  
Db|-0-----------------------------------| 



Pré-Solo: 

Myles: 
eb|-----------------------------------------------------------------| 
Bb|-----------------------------------------------------------------| 
Gb|-----------------------------------------------------------------| 
Db|-----------------------------------------------------------------| 
Ab|-3-3-3-3-3-3-3-3-3-3-3-3-3-3-3-3-7-7-7-7-7-7-7-7-7-7-7-7-7-5-7---| 
Db|-3-3-3-3-3-3-3-3-3-3-3-3-3-3-3-3-7-7-7-7-7-7-7-7-7-7-7-7-7-5-7---| 


eb|-----------------------------------------------------------------| 
Bb|-----------------------------------------------------------------| 
Gb|-----------------------------------------------------------------| 
Db|-----------------------------------------------------------------| 
Ab|-8-8-8-8-8-8-8-9-9-9-9-9-9-9-10-10-10-10-10-10-10-10-10-10-7-7-7-| 
Eb|-8-8-8-8-8-8-8-9-9-9-9-9-9-9-10-10-10-10-10-10-10-10-10-10-7-7-7-| 

Slash: 
eb|-----------------------------------------------------------------| 
Bb|-----------------------------------------------------------------| 
Gb|-10-10-10-10-10-10-10-10-10-10-10-10-10s12-10-9------------------| 
Db|-------------------------------------------------7-7-7-7-5-7-----| 
Ab|-8-8-8-8-8-8-8-8-8-8-8-8---8s10-8-7------------------------------| 
Db|-------------------------------------------------7---------------| 

eb|-------------------------------------| 
Bb|-------------------------------------| 
Gb|-0s3-------4-------5-5-5-5-5---------| 
Db|-----0-0-----0-0-------------7-7-xx--| 
Ab|-------------------------------------| 
Db|-----------------------------7-7-xx--| 


Solo: 

Slash: 
eb|-------------------------------------------------------------------------| 
Bb|-11b13-11b13r11-10b11r10-9b10-8b10-6h8-6b8-5h6-5h6p5-5b6r5---------------| 
Gb|------------------------------------------------------------5~------17---| 
Db|---------------------------------------------------------------0s19----19| 
Ab|-------------------------------------------------------------------------| 
Db|-------------------------------------------------------------------------| 

eb|------------------------------------------------------20-----20----20----| 
Bb|---------18-------20b22r20p18-20b22r20p18----18h20b22----20-----19----17-| 
Gb|-19-17-------19-17-------------------------19----------------------------| 
Db|------19-----------------------------------------------------------------| 
Ab|-------------------------------------------------------------------------| 
Db|-------------------------------------------------------------------------| 

eb|---------------------| 
Bb|---------------------| 
Gb|-12b14-12b14~-10-----| 
Db|------------------12-| 
Ab|---------------------| 
Db|---------------------| 

Myles: 
eb|--------------------------------| 
Bb|--------------------------------| 
Gb|--------------------------------| 
Db|--------------------------------| 
Ab|-0-2-3-2-0---7---10-9-8---3-----| x4 
Db|-0-2-3-2-0---7---10-9-8---3-----| 


Ponte: 

Slash: 
eb|---5---6---7--| 
Bb|-6-6---6---6--| 
Gb|-7-----7---5--| 
Db|--------------| 
Ab|--------------| X4 
Db|--------------| 


Refrão: 

Slash: 
eb|-------------------------------------| 
Bb|-------------------------------------| 
Gb|---------------------3---------------| 
Db|---3-------3-----x---3---------------| 
Ab|-0------3H5--3H5-x-0h1-3-------------| x3 
Db|-0---------------------3-0-2-3-2-----| 

eb|-------------------------------------| 
Bb|-------------------------------------| 
Gb|---------------------3---------------| 
Db|---3-------3-----x---3---------------| 
Ab|-0------3H5--3H5-x-0h1-3-------------|  
Db|-0---------------------3-0-2-3-2-----| 

Myles: 
eb|-------------------------------------| 
Bb|-------------------------------------| 
Gb|-------------------------------------| 
Db|-------------------------------------| 
Ab|-0-7-5-7-8-3-------------------------| x3 
Db|-0-7-5-7-8-3--------0-2-3-2----------| 

eb|-------------------------------------| 
Bb|-------------------------------------| 
Gb|-------------------3-5---------------| 
Db|-0-7-----3-----x---3-5---------------| 
Ab|-0-7-3H5---3H5-x-0h1-3---------------|  
Eb|-0-----------------------------------| 


Refrão Final: 

Slash: 
eb|---------------------------------------------------------------------| 
Bb|---------------------------------------------------------------------| 
Gb|---------------------------------------------------------------------| 
Db|-0-0-3P0-0-7-0-0-3P0-10-9-8-0-0-3P0-6b7-0-2-3-2----------------------| 
Ab|---------------------------------------------------------------------| x3 
Eb|---------------------------------------------------------------------| 

eb|---------------------------------------------------------------------| 
Bb|---------------------------------------------------------------------| 
Gb|---------------------------------------------------------------------| 
Db|0-0-3P0-0-7-0-0-3P0-10-9-8-0-3P0-0-5---------------------------------| 
Ab|---------------------------------------------------------------------| 
Db|---------------------------------------------------------------------| 

Myles: 
eb|-------------------------------------| 
Bb|-------------------------------------| 
Gb|-------------------------------------| 
Db|-------------------------------------| 
Ab|-0-7-5-7-8-3-------------------------| x3 
Db|-0-7-5-7-8-3--------0-2-3-2----------| 

eb|-------------------------------------| 
Bb|-------------------------------------| 
Gb|-------------------3-5---------------| 
Db|-0-7-----3-----x---3-5---------------| 
Ab|-0-7-3H5---3H5-x-0h1-3---------------|  
Db|-0-----------------------------------| 

		  

See also:

tabs The Offspring - The Kids Aren't Alright tabs Smashing Pumpkins - Today tabs Guns N' Roses - Don't Cry tabs Blue Oyster Cult - Dont Fear The Reaper tabs 4 Non Blondes - What's Up? tabs Aerosmith - Crazy
e-chords

Other versions:

tabs Slash - Bad Rain
auto scroll beats size up size down change color hide chords drawings
tab show chords e-chords YouTube Clip e-chords hide all tabs e-chords go to top tab

share