Slash Snakepit

Ain't Life Grand

Slash Snakepit

tabs Expert expert

save to print version add songbook text version e-mail correct tuner
chordsukulelecavacokeyboardtabbassdrumsharmonicaflute Guitar Pro
close

there isn't a video lesson for this song

chords

Ain't Life Grand

	  		 
Intro/outro: 
	  |Riff A 	   F#         | 
E|--------|---------------------------|  
B|--------|---------------------------|  
G|--------|-------4-------------------|  
D|--------|-----4----3-3-2------------|  
A|---0-1/2|-5p2------------4---0-1/2--| 
E|-2------|-------------------2-------| 
 
Ending 1: 
			     F#				 F# 
E|---------------------------|---------------------------|--------------- 
B|---------------------------|---------------------------|--------------- 
G|-------4---4---------------|---------------------------|--------------- 
D|-----4---3---2-------------|---------------------------|--------------- 
A|-5p2-----------5--2--------|---------------------------|--------------- 
E|---------------------------|---------------------------|--------------- 
 
		  "Come On" 
Ending 2: 
			Bm 
E|--------------------|----------| 
B|--------------------|--2-------| 
G|--------------------|--4-------| 
D|-----4--3-3r2-------|--4-------| 
A|-5p2----------5-2---|--2-------| 
E|--------------------|----------| 
 
Interlude: 
 Bm	     F#		   G	       F# 
E|-----------|-------------|-----------|-------------| 
B|-----------|-------------|-----------|-------------| 
G|-----------|-------------|-----------|-------------| 
D|-----------|-------------|---3-3p2---|-------------| 
A|-2-5-5p4-2-|---5-5p4-2---|---------5-|---4-5p4-2---| 
E|-----------|-2---------5-|-3---------|-2---------5-| 
 
Verse: ("End of the summer.....") 
  Bm		 G		        D		A 
E|--------------|----------------------|---------------|----------------- 
B|-3--3---3-----|----------------------|--7--7---7-----|----------------- 
G|-4--4---4-----|--3/4--4---4----------|--7--7---7-----|--6--6----------- 
D|-4--4---4-----|--4/5--5---5----------|--7--7---7-----|--7--7----------- 
A|-2--2---2-----|--4/5--5---5--------5-|--5--5---5-----|--7--7---8r7-5--- 
E|--------------|--2/3--3---3--3-5/7---|---------------|--5--5---------7- 
 
Repeat 1 time 
 
Pre-Chorus: ("the reason i'm stayin.....") 
 G		D		E	      F#	      F# 
E|--------------------|------------|-------------|---------------|--------------| 
B|--------------------|-7--7---7---|--8--8---8---|---------------|--------------| 
G|-4--4---4-----------|-7--7---7---|--9--9---9---|--11-11-11-11--|--3--3--3--3--| 
D|-5--5---5-----------|-7--7---7---|--9--9---9---|--11-11-11-11--|--4--4--4--4--| 
A|-5--5---5--------5--|-5--5---5---|--7--7---7---|--9--9--9--9---|--4--4--4--4--| 
E|-3--3---3--3-5/7----|------------|-------------|---------------|--2--2--2--2--| 
 
Chorus: ("Woohoo- Oh Yeah......") 
  G	     D		A	   E5 
E|----------|----------|----------|-----------| 
B|----------|----------|----------|-----------| 
G|----------|----------|----------|-----------| 
D|----------|----------|----------|-----------| 
A|---2-3-4--|-5--------|---4-5-6--|--7-5-4-2--| 
E|-3--------|---2-3-4--|-5--------|-----------| 
 
 
How To Play the song: 
1: Intro + ending 1 
2: Interlude 
3: Verse 1 
4: Pre-Chorus 
5: Interlude 
6: Verse 2 
7: Pre-Chorus 
8: Chorus 2 times 
9: Solo (Guitar 2 plays Verse + Pre-Chorus) 
10: Chorus 2 times 
11: Outro + ending 2 
 
______________________________________________________ 
Contribuição: ([email protected]) 

		  

Full key step upFull key step up
Half key step upHalf key step up
Half key step downHalf key step down
Full key step downFull key step down
hide glossary

See also:

tabs Cky - 96 Quiet Bitter Beings tabs Dio - Don't Talk To Strangers tabs Iron Butterfly - In-A-Gadda-De-Vida tabs Interpol - Obstacle (ver. 1) tabs Black Crowes - Jealous Again tabs Cream - Cream - Sunshine Of Your Love
e-chords

Other versions:

tabs Slash Snakepit - Ain't Life Grand tabs Slash's Snakepit - Ain't Life Grand
auto scroll beats size up size down change color hide chords drawings
tab show chords e-chords YouTube Clip e-chords hide all tabs e-chords go to top tab

share