Skyrim

Main Theme

Skyrim

tabs

by  ANG-LETRA

save to print version add songbook text version e-mail correct tuner
chordsukulelecavacokeyboardtabbassdrumsharmonicaflute Guitar Pro
close

there isn't a video lesson for this song

chords

Main Theme

	  		 
E|-------------------------------| 
B|-------------------------------| 
G|----0-0-0-0-0-0-0-0-0-0--2-3-0-|  (2x) 
D|-------------------------------| 
A|-------------------------------| 
E|-------------------------------| 
 


 
E|-------------------------------| 
B|-------------------------------| 
G|---0-0-0-0-0-0-0-0-0-0--2------| 
D|-------------------------------| 
A|-------------------------------| 
E|-------------------------------| 
 


 
E|---------------------------0---------------| 
B|---3-2-3----3-2-3----3-2-------3-2-0-------| 
G|-------------------------------------------| 
D|-------------------------------------------| 
A|-------------------------------------------| 
E|-------------------------------------------| 
 


 
E|-------------------------------------------| 
B|---------------------------3---------------| 
G|---4-2-4----4-2-4----4-2-------2-2-4-------| 
D|-------------------------------------------| 
A|-------------------------------------------| 
E|-------------------------------------------| 
 


 
E|---------------0-2-2-2-5-0-----------------| 
B|---0-2-3-3-3-----------------3-2-0---------| 
G|-------------------------------------------| 
D|-------------------------------------------| 
A|-------------------------------------------| 
E|-------------------------------------------| 
 


 
E|-------------------------------------------| 
B|---------------------------3---------------| 
G|---4-2-4----4-2-4----4-2-------2-2-4-------| 
D|-------------------------------------------| 
A|-------------------------------------------| 
E|-------------------------------------------| 
 


 
E|-------------------------------------------| 
B|-------------------------------------------| 
G|----4-4-4--------------2-2-2---------------|  (3x) 
D|----4-4-4-----4-4-4----2-2-2----2-2-2------| 
A|----2-2-2-----4-4-4----0-0-0----2-2-2------| 
E|--------------2-2-2-------------0-0-0------| 



 
E|---------------------------0---------------| 
B|---3-2-3----3-2-3----3-2-------3-2-0-------| 
G|-------------------------------------------| 
D|-------------------------------------------| 
A|-------------------------------------------| 
E|-------------------------------------------| 
 


 
E|-------------------------------------------| 
B|---------------------------3---------------| 
G|---4-2-4----4-2-4----4-2-------2-2-4-------| 
D|-------------------------------------------| 
A|-------------------------------------------| 
E|-------------------------------------------| 
 


 
E|---------------0-2-2-2-5-0-----------------| 
B|---0-2-3-3-3-----------------3-2-0---------| 
G|-------------------------------------------| 
D|-------------------------------------------| 
A|-------------------------------------------| 
E|-------------------------------------------| 
 


 
E|-------------------------------------------| 
B|---------------------------3---------------| 
G|---4-2-4----4-2-4----4-2-------2-2-4-------| 
D|-------------------------------------------| 
A|-------------------------------------------| 
E|-------------------------------------------| 
 


(Solo) 

 
E|-------------------0-2~~---5-0-------------| 
B|----0-2-3~~---3------------------3-2-0-----| 
G|-------------------------------------------| 
D|-------------------------------------------| 
A|-------------------------------------------| 
E|-------------------------------------------| 
 


 
E|-------------------0-2~~--5--5/7---5-9-7-----7-9-10-9-7------------0-------2-0-----| 
B|----0-2-3~~---3-------------------------------------------10-8-7---------3---------| 
B|-----------------------------------------------------------------------------------| 
G|-----------------------------------------------------------------------------------| 
D|-----------------------------------------------------------------------------------| 
A|-----------------------------------------------------------------------------------| 
 


 
E|---------------------------0---------------| 
B|---3-2-3----3-2-3----3-2-------3-2-0-------| 
G|-------------------------------------------| 
D|-------------------------------------------| 
A|-------------------------------------------| 
E|-------------------------------------------| 
 


 
E|-------------------------------------------| 
B|---------------------------3---------------| 
G|---4-2-4----4-2-4----4-2-------2-2-4-------| 
D|-------------------------------------------| 
A|-------------------------------------------| 
E|-------------------------------------------| 
 


 
E|---------------0-2-2-2-5-0-----------------| 
B|---0-2-3-3-3-----------------3-2-0---------| 
G|-------------------------------------------| 
D|-------------------------------------------| 
A|-------------------------------------------| 
E|-------------------------------------------| 
 


 
E|-------------------------------------------| 
B|---------------------------3---------------| 
G|---4-2-4----4-2-4----4-2-------2-2-4-------| 
D|-------------------------------------------| 
A|-------------------------------------------| 
E|-------------------------------------------| 
 


 
E|-------------------------------------------| 
B|-------------------------------------------| 
G|----4-4-4--------------2-2-2---------------|  (3x) 
D|----4-4-4-----4-4-4----2-2-2----2-2-2------| 
A|----2-2-2-----4-4-4----0-0-0----2-2-2------| 
E|--------------2-2-2-------------0-0-0------| 
		  

See also:

tabs Deep Purple - Smoke On The Water tabs Ira! - Núcleo Base ( Acústico MTV) tabs Deep Purple - When a Blind man cries tabs Deep Purple - Time To Kill tabs Ira! - O Girassol (intro) tabs Deep Purple - Smoke On The Water (solo Ver.2)
e-chords

Other versions:

tabs Fairy Tail - Main Theme tabs Skyrim - Main Theme tabs Lonlonjp - Main Theme Ocarina Of Time
auto scroll beats size up size down change color hide chords drawings
tab show chords e-chords YouTube Clip e-chords hide all tabs e-chords go to top tab

share