Sky.High

Its Just A Blur

Sky.High

tabs nolevel nolevel

by  MARCNAGEL

save to print version add songbook text version e-mail correct tuner
chordsukulelecavacokeyboardtabbassdrumsharmonicaflute Guitar Pro
close

there isn't a video lesson for this song

chords

Its Just A Blur

	  		
The song is played expressively aka tempo rubato. It's easy to tap along  
with your foot except  

A sample of adria blue by bohemianvoodoo. 
   
    
e|-----4-7---6---------------------| 
B|----4------7-7-------------------| 
G|---4-------6---8---6----------346| 
D|-------------------4---------6---| 
A|---------6-----------------------| 
E|-0---------------4---------------| 
   *   *   *   *   *   *   *   *   



e|-------------4-------------------| 
B|---4-------2-2---7-------4-----47| 
G|---4-4\----3-3---4-------5-------| 
D|---4-------------4-------7-------| 
A|-4-----------------------6-------| 
E|-------0-3-------4-------4-------| 
   *   *   *   *   *   *   *   *  



e|-----4-7/9-9---6-4-------------4-| 
B|----4------7---7-4-------4-------| 
G|---4-------6---6-4-------5-------| 
D|-------------------------4-------| 
A|---------6-----------------------| 
E|-0---------------4-------4-------| 
   *   *   *   *   *   *   *   *   



e|-4-------------------------------| 
B|-4-----4-2----------0------------| 
G|-4-------1---3/4---x-------------| 
D|---------2--------4--------------| 
A|-4-------------------------------| 
E|---------2-------4---------------| 
   *   *   *   *   *   *   *   * 
		  

See also:

tabs Deep Purple - Deep Purple - Smoke On The Water tabs Albert Hammond Jr - Miss Myrtle tabs Deep Purple - The Unwritten Law tabs Deep Purple - Pictures of Home tabs Deep Purple - Space Truckin tabs Deep Purple - Rat Bat Blues
e-chords

Other versions:

tabs Sky.High - Its Just A Blur
auto scroll beats size up size down change color hide chords drawings
tab show chords e-chords YouTube Clip e-chords hide all tabs e-chords go to top tab

share with facebook