Skank

Tanto

Skank

tabs Easy easy

by  JANNUZZI

save to print version add songbook text version e-mail correct tuner
chordsukulelecavacokeyboardtabbassdrumsharmonicaflute Guitar Pro
close

there isn't a video lesson for this song

chords

Tanto

(Bob Dylan)

Key:  G More
Tanto Key DD
Tanto Key D#D#
Tanto Key EE
Tanto Key FF(one step down)
Tanto Key F#F#(half step down)
Tanto Key GG(original key)
Tanto Key G#G#(half step up)
Tanto Key AA(one step up)
Tanto Key A#A#
Tanto Key BB
Tanto Key CC
Tanto Key C#C#
	  		 
Intro: (G Bm Em D) 
 
E|---7---| |-7-------7--------7--------7-------7-------7------------| 
B|---8---| |---10------10-------10-------10------10------10---------| 
G|---7---| |-------7--------7--------7-------7-------7--------------| 
D|---0---| |--------------------------------------------------------| 
A|-------| |--------------------------------------------------------| 
E|-------| |--------------------------------------------------------| 
 
|---7-----7-----7--------5------5------5----| 
|-----8-----8-----8--------8------8------8--| 
|-7-----7-----7-------7-------7------7------| 
|-------------------------------------------| 
|-------------------------------------------| 
|-------------------------------------------| 
 
|--3------3------3-------0------0-----0-----| 
|----5------5------5-------3------3-----3---| 
|-5------5------5-------2------2------2-----| 
|-------------------------------------------| 
|-------------------------------------------| 
|-------------------------------------------| 
  
|---7-----7-----7------------------------------2--------| 
|-----8-----8-----8--------------------------2---3------| 
|-7-----7-----7-----------------------------------------| 
|--------------------5(arrasta)7--5--4--2--0------------| 
|-------------------------------------------------------| 
|-------------------------------------------------------| 
 
|--------------------2----|        |-------------------------| 
|------------------2---3--|        |-------------------------| 
|-------------------------|    2x  |-------------------------| 
|-5--7--5--4--2--0--------|        |-5--7--7--7--7--7--7--7--| 
|-------------------------|        |-------------------------| 
|-------------------------|        |-------------------------|
		  

Full key step upFull key step up
Half key step upHalf key step up
Half key step downHalf key step down
Full key step downFull key step down
auto scroll beats size up size down change color hide chords drawings
tab show chords e-chords YouTube Clip e-chords hide all tabs e-chords go to top tab

share