Sixx Am

Gotta Get It Right

Sixx Am

tabs

by  PAULANTUNES

save to print version add songbook text version e-mail correct tuner
chordsukulelecavacokeyboardtabbassdrumsharmonicaflute Guitar Pro
close

there isn't a video lesson for this song

chords

Gotta Get It Right

	  		


  Intro (Vocals) 
e|---------------------------------------| 
B|-7----5----8----7----5----8------------| 
G|-7----7----7----7----7----7------------| 
D|-7----7----7----7----7----7----x\------| 
A|-5----5----5----5----5----5----x\------| 
D|-------------------------------x\------| 


  Riff A 
e|------------------| 
B|--3----2----3-----| 
G|--2----2----0-----| 
D|--0----2----0-----| 
A|--0----0----------| 
D|------------5-----| 

Or power chords, if you prefer. 
e|------------------| 
B|------------------| 
G|-7----------------| 
D|-7----7----5------| 
A|-5----7----5------| 
D|------7----5------| 


  Verse Part A (I remember the first time) 
e|-----------------------------------| 
B|-3-3-3-3-3-3-3----3-3-3-3-3-3-3----| 
G|-2-2-2-2-2-2-2----0-0-0-0-0-0-0----| 
D|-0-0-0-0-0-0-0----0-0-0-0-0-0-0----| 
A|-0-0-0-0-0-0-0---------------------| 
D|------------------5-5-5-5-5-5-5----| 


  Verse Part B 
e|-------------------------------------------| 
B|-3-3-3-3-3-3-3--------3-3-3-3-3-3-3--------| 
G|-2-2-2-2-2-2-2--------0-0-0-0-0-0-0--------| 
D|-0-0-0-0-0-0-0--------0-0-0-0-0-0-0--------| 
A|-0-0-0-0-0-0-0-----------------------4bp0--| 
D|----------------4bp0--5-5-5-5-5-5-5--------| 


  PreChorus (And if we could have) 
e|----------------------| 
B|-3----2----3----2-----| 
G|-4----2----0----2-----| 
D|-4----2----0----2-----| 
A|-2----0---------0-----| 
D|-----------5----------| 


  Chorus (Cause we were young) 
e------------| 
B|-3----3----| 
G|-2----0----| 
D|-0----0----| 
A|-0---------| 
D|------5----| 


  Post Chorus (And we could last forever) 
e|-----------| 
B|-3----2----| 
G|-4----2----| 
D|-4----2----| 
A|-2----0----| 
D|-----------| 


  Riff B (And there?s a chance for us tonight) 
e|------------------------------------| 
B|------------------------------------| 
G|-4-4-4-4----------------------------| 
D|-4-4-4-4-4-4-4-4-5-5-5-5-7-7-7-7----| 
A|-2-2-2-2-4-4-4-4-5-5-5-5-7-7-7-7----| 
D|---------4-4-4-4-5-5-5-5-7-7-7-7----| 


  Build Up 
e|----------------------------| 
B|----------------------------| 
G|----------------------------| 
D|-7-7-7-7-7-7-7-7-7-7-7-7----| 
A|-7-7-7-7-7-7-7-7-7-7-7-7----| 
D|-7-7-7-7-7-7-7-7-7-7-7-7----| 


  Ending (And we could last forever) 
e|-----------| 
B|-3----2----| 
G|-4----2----| 
D|-4----2----| 
A|-2----0----| 
D|-----------| 


Song Order: 
Intro 
Riff A x2 
Verse Part A x2 
Verse Part B  
Verse Part A 
Riff A x2 
PreChorus  
Chorus x4 
Post Chorus 
Riff A x2 
Verse Part B 
Verse Part A  
Verse Part B 
Verse Part A 
Riff A x2 
PreChorus 
Chorus x4 
Riff B x2 
Build up 
Chorus x8 
Ending 


Legend: 
x\ - pick slide 
b  - bend 
p  - pull off 
		  

Full key step upFull key step up
Half key step upHalf key step up
Half key step downHalf key step down
Full key step downFull key step down
hide glossary

See also:

tabs Ben Harper - Amen omen tabs Incubus - Drive tabs Jay-z & Linkin Park - Numb / Encore tabs Jonas Brothers - Gotta Find You (camp Rock) tabs Red Hot Chili Peppers - Soul To Squeeze tabs Red Hot Chili Peppers - Fortune Faded
e-chords

Other versions:

tabs Sixx Am - Gotta Get It Right
auto scroll beats size up size down change color hide chords drawings
tab show chords e-chords YouTube Clip e-chords hide all tabs e-chords go to top tab

share