Sixx Am

Goodbye My Friends

Sixx Am

tabs

by  SABRJOAO

save to print version add songbook text version e-mail correct tuner
chordsukulelecavacokeyboardtabbassdrumsharmonicaflute Guitar Pro
close

there isn't a video lesson for this song

chords

Goodbye My Friends

	  		

Tuning:DADGBE 

e|---------------------------------------------------------------------------| 
B|---------------------------------------------------------------------------| 
G|---------------------------------------------------------------------------| 
D|0-0-0-0-0-0-0-0--7-7-7-7-7-7-7-7--8-8-8-8-8-8-8-8--3-3-3-3-3-3-3-3---------| 
A|0-0-0-0-0-0-0-0--7-7-7-7-7-7-7-7--8-8-8-8-8-8-8-8--3-3-3-3-3-3-3-3---------| 
D|0-0-0-0-0-0-0-0--7-7-7-7-7-7-7-7--8-8-8-8-8-8-8-8--3-3-3-3-3-3-3-3---------| 
  *-*-*-*-*-*-*-*--*-*-*-*-*-*-*-*--*-*-*-*-*-*-*-*--*-*-*-*-*-*-*-* 

e|---------------------------------------------------------------------------| 
B|---------------------------------------------------------------------------| 
G|---------------------------------------------------------------------------| 
D|2-2-2-2-2-2-2-2/7-7-7-7-7-7-7-7--2-2-2-2-2-2-2-2/7-7-7-7-7-7-7-7-----------| 
A|2-2-2-2-2-2-2-2/7-7-7-7-7-7-7-7--2-2-2-2-2-2-2-2/7-7-7-7-7-7-7-7-----------| 
D|2-2-2-2-2-2-2-2/7-7-7-7-7-7-7-7--2-2-2-2-2-2-2-2/7-7-7-7-7-7-7-7-----------| 
  *-*-*-*-*-*-*-*-*-*-*-*-*-*-*-*--*-*-*-*-*-*-*-*-*-*-*-*-*-*-*-* 

e|---------------------------------------------------------------------------| 
B|---------------------------------------------------------------------------| 
G|7-7-7-7-----------------------------7-7-7-7--------------------6-6-6-6-----| 
D|7-7-7-7--7-7-7-7--8-8-8-8--3-3-3-3--7-7-7-7--7-7-7-7--3-3-3-3--6-6-6-6-----| 
A|5-5-5-5--7-7-7-7--8-8-8-8--3-3-3-3--5-5-5-5--7-7-7-7--3-3-3-3--4-4-4-4-----| 
D|---------7-7-7-7--8-8-8-8--3-3-3-3-----------7-7-7-7--3-3-3-3--------------| 

e|---------------------------------------------------------------------------| 
B|---------------------------------------------------------------------------| 
G|7-7-7-7-----------------------------7-7-7-7--------------------6-6-6-6-----| 
D|7-7-7-7--7-7-7-7--8-8-8-8--3-3-3-3--7-7-7-7--7-7-7-7--3-3-3-3--6-6-6-6-----| 
A|5-5-5-5--7-7-7-7--8-8-8-8--3-3-3-3--5-5-5-5--7-7-7-7--3-3-3-3--4-4-4-4-----| 
D|---------7-7-7-7--8-8-8-8--3-3-3-3-----------7-7-7-7--3-3-3-3--------------| 

e|---------------------------------------------------------------------------| 
B|---------------------------------------------------------------------------| 
G|---------------------------------------------------------------------------| 
D|0-0-0-0-0-0-0-0-0-0-0-0-0-0-0-0--7-7-7-7-7-7-7-7-7-7-7-7-7-7-7-7-----------| 
A|0-0-0-0-0-0-0-0-0-0-0-0-0-0-0-0--7-7-7-7-7-7-7-7-7-7-7-7-7-7-7-7-----------| 
D|0-0-0-0-0-0-0-0-0-0-0-0-0-0-0-0--7-7-7-7-7-7-7-7-7-7-7-7-7-7-7-7-----------| 

e|--------------------------------------------------------------------------------| 
B|--------------------------------------------------------------------------------| 
G|--------------------------------------------------------------------------------| 
D|10-10-10-10-10-10-10-10-10-10-10-10-10-10-10-10--5-5-5-5-5-5-5-5-5-5-5-5-5-5-5-5| 
A|10-10-10-10-10-10-10-10-10-10-10-10-10-10-10-10--5-5-5-5-5-5-5-5-5-5-5-5-5-5-5-5| 
D|10-10-10-10-10-10-10-10-10-10-10-10-10-10-10-10--5-5-5-5-5-5-5-5-5-5-5-5-5-5-5-5| 

e|---------------------------------------------------------------------------| 
B|---------------------------------------------------------------------------| 
G|7-7-7-7-7-7-7-7-7-7-7-7-7-7-7-7--------------------------------------------| 
D|7-7-7-7-7-7-7-7-7-7-7-7-7-7-7-7--7-7-7-7-7-7-7-7-7-7-7-7-7-7-7-7-----------| 
A|5-5-5-5-5-5-5-5-5-5-5-5-5-5-5-5--7-7-7-7-7-7-7-7-7-7-7-7-7-7-7-7-----------| 
D|---------------------------------7-7-7-7-7-7-7-7-7-7-7-7-7-7-7-7-----------| 

e|--------------------------------------------------------------------------------| 
B|--------------------------------------------------------------------------------| 
G|--------------------------------------------------------------------------------| 
D|10-10-10-10-10-10-10-10-10-10-10-10-10-10-10-10--5-5-5-5-5-5-5-5-5-5-5-5-5-5-5-5| 
A|10-10-10-10-10-10-10-10-10-10-10-10-10-10-10-10--5-5-5-5-5-5-5-5-5-5-5-5-5-5-5-5| 
D|10-10-10-10-10-10-10-10-10-10-10-10-10-10-10-10--5-5-5-5-5-5-5-5-5-5-5-5-5-5-5-5| 

e|--------------------------------| 
B|--------------------------------| 
G|--------------------------------| 
D|8-------------------------------| 
A|8-------------------------------| 
D|8-------------------------------| 

e|---------------------------------------------------------------------------| 
B|---------------------------------------------------------------------------| 
G|7-7-7-7-----------------------------7-7-7-7--------------------6-6-6-6-----| 
D|7-7-7-7--7-7-7-7--8-8-8-8--3-3-3-3--7-7-7-7--7-7-7-7--3-3-3-3--6-6-6-6-----| 
A|5-5-5-5--7-7-7-7--8-8-8-8--3-3-3-3--5-5-5-5--7-7-7-7--3-3-3-3--4-4-4-4-----| 
D|---------7-7-7-7--8-8-8-8--3-3-3-3-----------7-7-7-7--3-3-3-3--------------| 

e|---------------------------------------------------------------------------| 
B|---------------------------------------------------------------------------| 
G|7-7-7-7-----------------------------7-7-7-7--------------------6-6-6-6-----| 
D|7-7-7-7--7-7-7-7--8-8-8-8--3-3-3-3--7-7-7-7--7-7-7-7--3-3-3-3--6-6-6-6-----| 
A|5-5-5-5--7-7-7-7--8-8-8-8--3-3-3-3--5-5-5-5--7-7-7-7--3-3-3-3--4-4-4-4-----| 
D|---------7-7-7-7--8-8-8-8--3-3-3-3-----------7-7-7-7--3-3-3-3--------------| 

e|---------------------------------------------------------------------------| 
B|---------------------------------------------------------------------------| 
G|7-7-7-7-7-7-7-7------------------------------------------------------------| 
D|7-7-7-7-7-7-7-7--7-7-7-7-7-7-7-7--8-8-8-8-8-8-8-8--3-3-3-3-3-3-3-3---------| 
A|5-5-5-5-5-5-5-5--7-7-7-7-7-7-7-7--8-8-8-8-8-8-8-8--3-3-3-3-3-3-3-3---------| 
D|-----------------7-7-7-7-7-7-7-7--8-8-8-8-8-8-8-8--3-3-3-3-3-3-3-3---------| 

e|---------------------------------------------------------------------------| 
B|---------------------------------------------------------------------------| 
G|---------------------------------------------------------------------------| 
D|2-2-2-2-2-2-2-2/7-7-7-7-7-7-7-7--2-2-2-2-2-2-2-2/7-7-7-7-7-7-7-7-----------| 
A|2-2-2-2-2-2-2-2/7-7-7-7-7-7-7-7--2-2-2-2-2-2-2-2/7-7-7-7-7-7-7-7-----------| 
D|2-2-2-2-2-2-2-2/7-7-7-7-7-7-7-7--2-2-2-2-2-2-2-2/7-7-7-7-7-7-7-7-----------| 

e|---------------------------------------------------------------------------| 
B|---------------------------------------------------------------------------| 
G|7-7-7-7-7-7-7-7------------------------------------------------------------| 
D|7-7-7-7-7-7-7-7--7-7-7-7-7-7-7-7--8-8-8-8-8-8-8-8--3-3-3-3-3-3-3-3---------| 
A|5-5-5-5-5-5-5-5--7-7-7-7-7-7-7-7--8-8-8-8-8-8-8-8--3-3-3-3-3-3-3-3---------| 
D|-----------------7-7-7-7-7-7-7-7--8-8-8-8-8-8-8-8--3-3-3-3-3-3-3-3---------| 

e|---------------------------------------------------------------------------| 
B|---------------------------------------------------------------------------| 
G|---------------------------------------------------------------------------| 
D|2-2-2-2-2-2-2-2/7-7-7-7-7-7-7-7--2-2-2-2-2-2-2-2/7-7-7-7-7-7-7-7-----------| 
A|2-2-2-2-2-2-2-2/7-7-7-7-7-7-7-7--2-2-2-2-2-2-2-2/7-7-7-7-7-7-7-7-----------| 
D|2-2-2-2-2-2-2-2/7-7-7-7-7-7-7-7--2-2-2-2-2-2-2-2/7-7-7-7-7-7-7-7-----------| 

e|---------------------------------------------------------------------------| 
B|---------------------------------------------------------------------------| 
G|7-7-7-7-7-7-7-7------------------------------------------------------------| 
D|7-7-7-7-7-7-7-7--7-7-7-7-7-7-7-7--8-8-8-8-8-8-8-8--11-11-11-11-11-11-11-11-| 
A|5-5-5-5-5-5-5-5--7-7-7-7-7-7-7-7--8-8-8-8-8-8-8-8--11-11-11-11-11-11-11-11-| 
D|-----------------7-7-7-7-7-7-7-7--8-8-8-8-8-8-8-8--11-11-11-11-11-11-11-11-| 

e|---------------------------------------------------------------------------| 
B|---------------------------------------------------------------------------| 
G|7-7-7-7-7-7-7-7------------------------------------------------------------| 
D|7-7-7-7-7-7-7-7--7-7-7-7-7-7-7-7--8-8-8-8-8-8-8-8--11-11-11-11-11-11-11-11-| 
A|5-5-5-5-5-5-5-5--7-7-7-7-7-7-7-7--8-8-8-8-8-8-8-8--11-11-11-11-11-11-11-11-| 
D|-----------------7-7-7-7-7-7-7-7--8-8-8-8-8-8-8-8--11-11-11-11-11-11-11-11-| 

e|---------------------------------------------------------------------------| 
B|---------------------------------------------------------------------------| 
G|7-7-7-7-----------------------------7-7-7-7--------------------6-6-6-6-----| 
D|7-7-7-7--7-7-7-7--8-8-8-8--3-3-3-3--7-7-7-7--7-7-7-7--3-3-3-3--6-6-6-6-----| 
A|5-5-5-5--7-7-7-7--8-8-8-8--3-3-3-3--5-5-5-5--7-7-7-7--3-3-3-3--4-4-4-4-----| 
D|---------7-7-7-7--8-8-8-8--3-3-3-3-----------7-7-7-7--3-3-3-3--------------| 

e|---------------------------------------------------------------------------| 
B|---------------------------------------------------------------------------| 
G|7-7-7-7-----------------------------7-7-7-7--------------------6-6-6-6-----| 
D|7-7-7-7--7-7-7-7--8-8-8-8--3-3-3-3--7-7-7-7--7-7-7-7--3-3-3-3--6-6-6-6-----| 
A|5-5-5-5--7-7-7-7--8-8-8-8--3-3-3-3--5-5-5-5--7-7-7-7--3-3-3-3--4-4-4-4-----| 
D|---------7-7-7-7--8-8-8-8--3-3-3-3-----------7-7-7-7--3-3-3-3--------------| 

e|---------------------------------------------------------------------------| 
B|---------------------------------------------------------------------------| 
G|---------------------------------------------------------------------------| 
D|---------------------------------------------------------------------------| 
A|---------------------------------------------------------------------------| 
D|---------------------------------------------------------------------------| 

e|---------------------------------------------------------------------------| 
B|---------------------------------------------------------------------------| 
G|7-7-7-7-7-7-7-7-7-7-7-7-7-7-7-7--------------------------------------------| 
D|7-7-7-7-7-7-7-7-7-7-7-7-7-7-7-7--7-7-7-7-7-7-7-7-7-7-7-7-7-7-7-7-----------| 
A|5-5-5-5-5-5-5-5-5-5-5-5-5-5-5-5--7-7-7-7-7-7-7-7-7-7-7-7-7-7-7-7-----------| 
D|---------------------------------7-7-7-7-7-7-7-7-7-7-7-7-7-7-7-7-----------| 

e|--------------------------------------------------------------------------------| 
B|--------------------------------------------------------------------------------| 
G|--------------------------------------------------------------------------------| 
D|10-10-10-10-10-10-10-10-10-10-10-10-10-10-10-10--5-5-5-5-5-5-5-5-5-5-5-5-5-5-5-5| 
A|10-10-10-10-10-10-10-10-10-10-10-10-10-10-10-10--5-5-5-5-5-5-5-5-5-5-5-5-5-5-5-5| 
D|10-10-10-10-10-10-10-10-10-10-10-10-10-10-10-10--5-5-5-5-5-5-5-5-5-5-5-5-5-5-5-5| 

e|--------------------------------| 
B|--------------------------------| 
G|--------------------------------| 
D|8-------------------------------| 
A|8-------------------------------| 
D|8-------------------------------| 

e|---------------------------------------------------------------------------| 
B|---------------------------------------------------------------------------| 
G|7-7-7-7-----------------------------7-7-7-7--------------------6-6-6-6-----| 
D|7-7-7-7--7-7-7-7--8-8-8-8--3-3-3-3--7-7-7-7--7-7-7-7--3-3-3-3--6-6-6-6-----| 
A|5-5-5-5--7-7-7-7--8-8-8-8--3-3-3-3--5-5-5-5--7-7-7-7--3-3-3-3--4-4-4-4-----| 
D|---------7-7-7-7--8-8-8-8--3-3-3-3-----------7-7-7-7--3-3-3-3--------------| 

e|---------------------------------------------------------------------------| 
B|---------------------------------------------------------------------------| 
G|7-7-7-7-----------------------------7-7-7-7--------------------6-6-6-6-----| 
D|7-7-7-7--7-7-7-7--8-8-8-8--3-3-3-3--7-7-7-7--7-7-7-7--3-3-3-3--6-6-6-6-----| 
A|5-5-5-5--7-7-7-7--8-8-8-8--3-3-3-3--5-5-5-5--7-7-7-7--3-3-3-3--4-4-4-4-----| 
D|---------7-7-7-7--8-8-8-8--3-3-3-3-----------7-7-7-7--3-3-3-3--------------| 

e|---------------------------------------------------------------------------| 
B|---------------------------------------------------------------------------| 
G|7-7-7-7-7-7-7-7------------------------------------------------------------| 
D|7-7-7-7-7-7-7-7--7-7-7-7-7-7-7-7--8-8-8-8-8-8-8-8--3-3-3-3-3-3-3-3---------| 
A|5-5-5-5-5-5-5-5--7-7-7-7-7-7-7-7--8-8-8-8-8-8-8-8--3-3-3-3-3-3-3-3---------| 
D|-----------------7-7-7-7-7-7-7-7--8-8-8-8-8-8-8-8--3-3-3-3-3-3-3-3---------| 

e|---------------------------------------------------------------------------| 
B|---------------------------------------------------------------------------| 
G|---------------------------------------------------------------------------| 
D|2-2-2-2-2-2-2-2/7-7-7-7-7-7-7-7--2-2-2-2-2-2-2-2/7-7-7-7-7-7-7-7-----------| 
A|2-2-2-2-2-2-2-2/7-7-7-7-7-7-7-7--2-2-2-2-2-2-2-2/7-7-7-7-7-7-7-7-----------| 
D|2-2-2-2-2-2-2-2/7-7-7-7-7-7-7-7--2-2-2-2-2-2-2-2/7-7-7-7-7-7-7-7-----------| 

e|---------------------------------------------------------------------------| 
B|---------------------------------------------------------------------------| 
G|7-7-7-7-7-7-7-7------------------------------------------------------------| 
D|7-7-7-7-7-7-7-7--7-7-7-7-7-7-7-7--8-8-8-8-8-8-8-8--3-3-3-3-3-3-3-3---------| 
A|5-5-5-5-5-5-5-5--7-7-7-7-7-7-7-7--8-8-8-8-8-8-8-8--3-3-3-3-3-3-3-3---------| 
D|-----------------7-7-7-7-7-7-7-7--8-8-8-8-8-8-8-8--3-3-3-3-3-3-3-3---------| 

e|---------------------------------------------------------------------------| 
B|---------------------------------------------------------------------------| 
G|---------------------------------------------------------------------------| 
D|2-2-2-2-2-2-2-2/7-7-7-7-7-7-7-7--2-2-2-2-2-2-2-2/7-7-7-7-7-7-7-7-----------| 
A|2-2-2-2-2-2-2-2/7-7-7-7-7-7-7-7--2-2-2-2-2-2-2-2/7-7-7-7-7-7-7-7-----------| 
D|2-2-2-2-2-2-2-2/7-7-7-7-7-7-7-7--2-2-2-2-2-2-2-2/7-7-7-7-7-7-7-7-----------| 

e|---------------------------------------------------------------------------| 
B|---------------------------------------------------------------------------| 
G|7-7-7-7-7-7-7-7------------------------------------------------------------| 
D|7-7-7-7-7-7-7-7--7-7-7-7-7-7-7-7--8-8-8-8-8-8-8-8--11-11-11-11-11-11-11-11-| 
A|5-5-5-5-5-5-5-5--7-7-7-7-7-7-7-7--8-8-8-8-8-8-8-8--11-11-11-11-11-11-11-11-| 
D|-----------------7-7-7-7-7-7-7-7--8-8-8-8-8-8-8-8--11-11-11-11-11-11-11-11-| 

e|---------------------------------------------------------------------------| 
B|---------------------------------------------------------------------------| 
G|7-7-7-7-7-7-7-7------------------------------------------------------------| 
D|7-7-7-7-7-7-7-7--7-7-7-7-7-7-7-7--8-8-8-8-8-8-8-8--11-11-11-11-11-11-11-11-| 
A|5-5-5-5-5-5-5-5--7-7-7-7-7-7-7-7--8-8-8-8-8-8-8-8--11-11-11-11-11-11-11-11-| 
D|-----------------7-7-7-7-7-7-7-7--8-8-8-8-8-8-8-8--11-11-11-11-11-11-11-11-| 


************************************ 

| /   slide up 
| \   slide down 
| h   hammer-on 
| p   pull-off 
| ~   vibrato 
| +   harmonic 
| x   Mute note 
| b   Bend 
| pb  Pre-bend 
| br  Bend release 
| pbr Pre-bend release 
| brb Bend release bend 

************************************ 
		  

See also:

tabs Ben Harper - Amen omen tabs Incubus - Drive tabs Jay-z & Linkin Park - Numb / Encore tabs Jonas Brothers - Gotta Find You (camp Rock) tabs Red Hot Chili Peppers - Soul To Squeeze tabs Red Hot Chili Peppers - Fortune Faded
e-chords

Other versions:

tabs Sixx Am - Goodbye My Friends
auto scroll beats size up size down change color hide chords drawings
tab show chords e-chords YouTube Clip e-chords hide all tabs e-chords go to top tab

share