Six60

Lost

Six60

tabs Expert expert

by  CARLLUZ

save to print version add songbook text version e-mail correct tuner
chordsukulelecavacokeyboardtabbassdrumsharmonicaflute Guitar Pro
close

there isn't a video lesson for this song

chords

Lost

	  		

Chords used: 


|----0-------0-------0-------0-------3-------| 
|----1-------1-------1-------3-------3-------| 
|----0-------0-------0-------0-------0-------| 
|----2-------0-------2-------4-------0-------| 
|----0-------2-------3-------5-------2-------| 
|------------------------------------3-------| 
     Am7             C               G 



INTRO: 

|--------------------------------------------| 
|-----------1---------------------------1----| 
|-----------0-------------------------0-0----| 
|--2-----------2---2---2------------0--------| 
|---0---0--------0---0------------2----------| 
|--------------------------------------------| 


|--------------------------------------------| 
|-----------1-------------------------3------| 
|-----------0-------------------------0------| 
|--------------2---2---2------------4----4---| 
|---3-----3------3---3-----------/5----------| 
|--------------------------------------------| 
                        Slide C chord up 2 frets 



VERSES: 

|----------------------------------------------------------------------| 
|-----------1----------------1----------------1-------------------1----| 
|-----------0----------------0----------------0-------0---------0-0----| 
|-------2------2---2---2---------2---------2----2---2---2-----0--------| 
|---0------------0---0---------0---0----0---------0---------2----------| 
|----------------------------------------------------------------------| 
                                             So who am I today... 

|--------------------------------------------| 
|-----------1-------------------------3------| 
|-----------0-------------------------0------| 
|---------2----2---2---2------------4----4---| 
|---3------------3---3-----------/5----------| 
|--------------------------------------------| 
                Caught beneath the shadow... 

|----------------------------------------------------------------------| 
|-----------1----------------1----------------1-------------------1----| 
|-----------0----------------0----------------0-------0---------0-0----| 
|-------2------2---2---2---------2---------2----2---2---2-----0--------| 
|---0------------0---0---------0---0----0---------0---------2----------| 
|----------------------------------------------------------------------| 
                                Nothing I can say... 

|--------------------------------------------| 
|-----------1-------------------------3------| 
|-----------0-------------------------0------| 
|---------2----2---2---2------------4----4---| 
|---3------------3---3-----------/5----------| 
|--------------------------------------------| 
                For who I'll be tomorrow... 

|----------------------------------------------------------------------| 
|-----------1----------------1----------------1-------------------1----| 
|-----------0----------------0----------------0-------0---------0-0----| 
|-------2------2---2---2---------2---------2----2---2---2-----0--------| 
|---0------------0---0---------0---0----0---------0---------2----------| 
|----------------------------------------------------------------------| 
                                So tie me downward bound... 

|------------------------------------------------------------------------| 
|-----------1-----------------------------------3------------3-----------| 
|-----------0-------------0---------------------0------------0-----------| 
|---------2----2---2---2------2------------4--------4--------------4-----| 
|---3------------3---3------3---3------3/5---5--------5----5-------------| 
|------------------------------------------------------------------------| 
                Throw me on the tracks...        You still wanna run me... 


|----------------------------------------------------------------------| 
|-----------1----------------1----------------1-------------------1----| 
|-----------0----------------0----------------0-------0---------0-0----| 
|-------2------2---2---2---------2---------2----2---2---2-----0--------| 
|---0------------0---0---------0---0----0---------0---------2----------| 
|----------------------------------------------------------------------| 
   over...                                  When I close my eyes... 

|------------------------------------------------------------------------| 
|-----------1-----------------------------------3------------3-----------| 
|-----------0-------------0---------------------0------------0-----------| 
|---------2----2---2---2------2------------4--------4--------------4-----| 
|---3------------3---3------3---3------3/5---5--------5----5-------------| 
|------------------------------------------------------------------------| 
                  She pulls me to the side...           To tell me it ain't 

|----------------------------------------------------------------------| 
|-----------1----------------1----------------1--------------1---------| 
|-----------0----------------0----------------0--------------0---------| 
|-------2------2---2---2---------2---------0----0---0---0-------0------| 
|---0------------0---0---------0---0----2---------2---2-----------2----| 
|----------------------------------------------------------------------| 
over...                                                     I'm not lost... 


CHORUS: 


|-----0--------------0--------------3--------------3----| 
|-----1--------------1--------------3--------------3----| 
|-----0--------------0--------------0--------------0----| 
|-----2--------------2--------------0--------------0----| 
|--3--3-----------0--0--------------2--------------2----| 
|--------------------------------3--3-----------3--3----| 
      C            Am7              G              G 





PRE-VERSE: 

|--------------------------------------------| 
|-----------1---------------------------1----| 
|-----------0-------------------------0-0----| 
|--2-----------2---2---2------------0--------| 
|---0---0--------0---0------------2----------| 
|--------------------------------------------| 


|--------------------------------------------| 
|-----------1-------------------------3------| 
|-----------0-------------------------0------| 
|---------2----2---2---2------------4----4---| 
|---3------------3---3-----------/5----------| 
|--------------------------------------------| 


 
		  

Full key step upFull key step up
Half key step upHalf key step up
Half key step downHalf key step down
Full key step downFull key step down
hide glossary

See also:

tabs Six60 - Lost tabs Bjork - Army of Me tabs Six60 - White Lines tabs Bjork - I Go Humble tabs Bjork - Moon tabs Bjork - The Anchor Song
e-chords

Other versions:

tabs Korn - Lost tabs Kreator - Lost tabs Six60 - Lost tabs Priscilla Ahn - Lost tabs Fonzie - Lost tabs Chance The Rapper - Lost
auto scroll beats size up size down change color hide chords drawings
tab show chords e-chords YouTube Clip e-chords hide all tabs e-chords go to top tab

share