Simple Plan

Perfect (ver. 3)

Simple Plan

tabs Beginner beginner

by  BISMARK_LPT

save to print version add songbook text version e-mail correct tuner
chordsukulelecavacokeyboardtabbassdrumsharmonicaflute Guitar Pro
close

there isn't a video lesson for this song

chords

Perfect (ver. 3)

	  		-----------------------------------   
-----6-----------------------------   
---5---7---------------------------   
-7-------5/7-5/7-5/7-5/7-----5-7---   
-------------------------5-5-----5-   
-----------------------------------   
  
------------------------10-8---10--   
-----6----------------------10-----   
---5---7-------------7-------------   
-7-------5/7-5/7-5/7---------------   
-----------------------------------   
-----------------------------------   
  
-----------------------------------   
-----6-----------------------------   
---5---7---------------------------   
-7-------5/7-5/7-5/7-5/7-----5-7---   
-------------------------5-5-----5-   
-----------------------------------   
  
------------------------10-8--10--10-8--10-10-8--10-8--10-8--10-8--10-8--10-8----   
-----6----------------------10--------10-------10----10----10----10----10----10--   
---5---7-------------7-----------------------------------------------------------   
-7-------5/7-5/7-5/7-------------------------------------------------------------   
---------------------------------------------------------------------------------   
---------------------------------------------------------------------------------   
  
-----------------------------------   
-----6-----------------------------   
---5---7---------------------------   
-7-------5/7-5/7-5/7-5/7-----5-7---   
-------------------------5-5-----5-   
-----------------------------------   
  
------------------------10-8---10/12-10--   
-----6----------------------10-----------   
---5---7-------------7-------------------   
-7-------5/7-5/7-5/7---------------------   
-----------------------------------------   
-----------------------------------------   
  
-----------------------------------   
-----6-----------------------------   
---5---7---------------------------   
-7-------5/7-5/7-5/7-5/7-----5-7---   
-------------------------5-5-----5-   
-----------------------------------   
  
  
Muito Rapido:   
  
--10-8--10--10-8--10-10-8--10-8--10-8--10-8--10-8--10-8----   
------10--------10-------10----10----10----10----10----10--   
-----------------------------------------------------------   
-----------------------------------------------------------   
-----------------------------------------------------------   
-----------------------------------------------------------   
  
Mais rapido ainda   
  
  
-15-12--15-12--15-12--15-12--15-12--15-12--15-12--15-12-----   
------15-----15-----15-----15-----15-----15-----15-----15---   
------------------------------------------------------------   
------------------------------------------------------------   
------------------------------------------------------------   
 

		  

See also:

tabs Rush - Time Stand Still tabs Rush - Analog Kid tabs Rush - Xanadu tabs Nickelback - Burn It To The Ground tabs Alanis Morissette - King of Pain tabs Rush - Roll The Bones
e-chords

Other versions:

tabs Simple Plan - Perfect tabs Dance Gavin Dance - Perfect tabs Simple Plan - Perfect (ver. 2) tabs Simple Plan - Perfect (ver. 3) tabs Smashing Pumpkins - Perfect Acoustic tabs Guns N' Roses - Perfect crime (ver.2)
auto scroll beats size up size down change color hide chords drawings
tab show chords e-chords YouTube Clip e-chords hide all tabs e-chords go to top tab

share