Símios

Vamo Acender

Símios

tabs

save to print version add songbook text version e-mail correct tuner
chordsukulelecavacokeyboardtabbassdrumsharmonicaflute Guitar Pro
close

there isn't a video lesson for this song

chords

Vamo Acender

	  		Obs.: Música composta por dois riffs. Uso da distorção em toda a música. 
 
*PALM MUTTING no Riff 2 
 
 
RIFF 1 
 
   E5      D5      E5 
e|-----------------------------------| 
B|-----------------------------------| 
G|-9-9--9--7-7--7--4-4--4------------| 
D|-9-9--9--7-7--7--4-4--4------------| 
A|-7-7--7--5-5--5--2-2--2----0-2---0-| 
E|-------------------------3-----3---| 
  
   E5      D5      B5 
e|-----------------------------------| 
B|-----------------------------------| 
G|-9-9--9--7-7--7--4-4--4--4-4-4--4--| 
D|-9-9--9--7-7--7--4-4--4--4-4-4--4--| 
A|-7-7--7--5-5--5--2-2--2--2-2-2--2--| 
E|-----------------------------------| 
 
 
 
RIFF 2 
 
   E5      B5      G5      A5 
e|---------------------------------| 
B|---------------------------------| 
G|-9-9-9x--------------------------| 
D|-9-9-9x--9-9-9x--5-5-5x--7-7-7x--| 
A|-7-7-7x--9-9-9x--5-5-5x--7-7-7x--| 
E|---------7-7-7x--3-3-3x--5-5-5x--| 
pm ***     ***     ***     *** 
 
INTRO: 2X (RIFF 1)  
 
4X (RIFF 2) 
 
ELE CHEGOU COM GÁS TOTAL 
FAZENDO ACONTECER 
 
REVOLUÇÃO TÁ NA CABEÇA  
ATITUDE E PODER 
 
TODO MUNDO DIZ QUE FAZ 
TÔ CANSADO DE ESPERAR 
 
TÁ EMBAIXO TÁ PULANDO  
TÁ NO PALCO É PRÁ TOCAR 
 
2X (RIFF 1)  
 
VAMO ACENDER VAMO ACENDER 
NÃO DEIXE APAGAR  
VAMO ACENDER QUE EU QUERO VER  
QUEIMAR, QUEIMAR.  
 
2X (RIFF 2)  TRANSIÇÃO 
 
4X (RIFF 2) 
 
TODO MUNDO DIZ QUE FAZ 
TÔ CANSADO DE ESPERAR  
 
TÁ EMBAIXO TÁ PULANDO  
TÁ NO PALCO É PRÁ TOCAR 
 
É ?DICHAVANDO? A DEMÊNCIA  
ENROLANDO O QUE RESTOU 
 
APERTANDO A CONSCIÊNCIA 
QUEIMANDO COM ROCK'N'ROLL 
 
(RIFF 1) 2X 
 
VAMO ACENDER VAMO ACENDER 
NÃO DEIXE APAGAR  
VAMO ACENDER QUE EU QUERO VER  
QUEIMAR, QUEIMAR.  

		  

Full key step upFull key step up
Half key step upHalf key step up
Half key step downHalf key step down
Full key step downFull key step down
hide glossary

See also:

tabs Charlie Brown Jr. - Cidade Grande tabs Charlie Brown Jr. - Cada cabeça falante tabs Charlie Brown Jr. - Bons Aliados tabs Charlie Brown Jr. - Falar, Falar tabs Charlie Brown Jr. - Beco sem saída tabs Charlie Brown Jr. - 333
e-chords

Other versions:

tabs Símios - Vamo Acender
auto scroll beats size up size down change color hide chords drawings
tab show chords e-chords YouTube Clip e-chords hide all tabs e-chords go to top tab

share