Silverstein

Say Yes Tab

Silverstein

Difficulty: nolevelnolevel

by gustsilva

tuner correct add songbook print version text version save to e-mail
chordsukulelecavacokeyboardtabbassdrumsharmonicsflute Guitar Pro
close

there isn't a video lesson for this song

request
chords

Say Yes

Key:  D More
Say Yes Key AA
Say Yes Key A#A#
Say Yes Key BB
Say Yes Key CC(one step down)
Say Yes Key C#C#(half step down)
Say Yes Key DD(original key)
Say Yes Key D#D#(half step up)
Say Yes Key EE(one step up)
Say Yes Key FF
Say Yes Key F#F#
Say Yes Key GG
Say Yes Key G#G#
  		

Intro 
Guitar 1: 
D||-------------------------------------------------------------------| 
A||-------------------------------------------------------------------| 
F||--9-9-9-9---4-4-4-2-2-2-2---8-8-8-9-9-9-9---4-4-4-2-2-2-2---2-2-2--| 
C||--9-9-9-9---4-4-4-2-2-2-2---7-7-7-9-9-9-9---4-4-4-2-2-2-2---2-2-2--| 
G||--x-x-x-x---x-x-x-x-x-x-x---x-x-x-x-x-x-x---x-x-x-x-x-x-x---x-x-x--| 
D||--9-9-9-9---4-4-4-2-2-2-2---7-7-7-9-9-9-9---4-4-4-2-2-2-2---2-2-2--| 


D||-------------------------------------------------------------------| 
A||-------------------------------------------------------------------| 
F||--9-9-9-9---4-4-4-2-2-2-2---8-8-8-9-9-9-9---4-4-4-2-2-2-2----------| 
C||--9-9-9-9---4-4-4-2-2-2-2---7-7-7-9-9-9-9---4-4-4-2-2-2-2----------| 
G||--x-x-x-x---x-x-x-x-x-x-x---x-x-x-x-x-x-x---x-x-x-x-x-x-x----------| 
D||--9-9-9-9---4-4-4-2-2-2-2---7-7-7-9-9-9-9---4-4-4-2-2-2-2----------| 


Guitar 2: 
D||---------------------------------------------------------------------| 
A||---------------------------------------------------------------------| 
F||---------------------------------------------------------------------| 
C||---------------------------------------------------------------------| 
G||---------------------------------------------------------------------| 
D||---------------------------------------------------------------------| 


D||------------------------------------------------------------4h5--p4--| 
A||---------------------------------------------------------------------| 
F||---------------------------------------------------------------------| 
C||---------------------------------------------------------------------| 
G||---------------------------------------------------------------------| 
D||---------------------------------------------------------------------| 



Pre-Verse 
Guitar 1: 
D||--------------------------4h5--p4------------------------------------| 
A||--5-5-5-5-5-5-5-5-5-5-5-5----------7p5-5-5-5-5---------------5/7--5--| 
F||-----------------------------------------------4-4-4-6-6-6-6---------| 
C||---------------------------------------------------------------------| 
G||---------------------------------------------------------------------| 
D||---------------------------------------------------------------------| 


D||--------------------------4h5--p4------------------------------------| 
A||--5-5-5-5-5-5-5-5-5-5-5-5----------7p5-5-5-5-5---------------5/7--5--| 
F||-----------------------------------------------4-4---6-6-6-6---------| 
C||---------------------------------------------------------------------| 
G||---------------------------------------------------------------------| 
D||---------------------------------------------------------------------| 


Guitar 2: 
D||-------------------------------------------------------------------| 
A||-------------------------------------------------------------------| 
F||--9-9-9-9-9\4-4-4-2-2-2-2-2/8-8-8-9-9-9-9-9\4-4-4-2-2-2-2-2-2-2-2--| 
C||--9-9-9-9-9\4-4-4-2-2-2-2-2/7-7-7-9-9-9-9-9\4-4-4-2-2-2-2-2-2-2-2--| 
G||--x-x-x-x-x\x-x-x-x-x-x-x-x/x-x-x-x-x-x-x-x\x-x-x-x-x-x-x-x-x-x-x--| 
D||--9-9-9-9-9\4-4-4-2-2-2-2-2/7-7-7-9-9-9-9-9\4-4-4-2-2-2-2-2-2-2-2--| 


D||-------------------------------------------------------------------| 
A||-------------------------------------------------------------------| 
F||--9-9-9-9-9\4-4-4-2-2-2-2-2/8-8-8-9-9-9-9-9\4-4-4-2-2-2-2-2-2-2-2--| 
C||--9-9-9-9-9\4-4-4-2-2-2-2-2/7-7-7-9-9-9-9-9\4-4-4-2-2-2-2-2-2-2-2--| 
G||--x-x-x-x-x\x-x-x-x-x-x-x-x/x-x-x-x-x-x-x-x\x-x-x-x-x-x-x-x-x-x-x--| 
D||--9-9-9-9-9\4-4-4-2-2-2-2-2/7-7-7-9-9-9-9-9\4-4-4-2-2-2-2-2-2-2-2--| 



Verse 
Guitar 1: 
D||-------------------------------------------------------------------| 
A||-------------------------------------------------------------------| 
F||-------------------------------------------------------------------| 
C||------------------------------------------------------------4-4----| 
G||------------------------------------------------------------x-x----| 
D||--9-9-9-9---4-4-4-2-2-2-2---7-7-7-9-9-9-9---4-4-4-2-2-2-2---2-2----| 
     . . . .   . . . . . . .   . . . . . . .   . . . . . . . 


Guitar 1/2: 
D||-------------------------------------------------------------------| 
A||-------------------------------------------------------------------| 
F||-------------------------------------------------------------------| 
C||-------------------------------------------------------------------| 
G||-------------------------------------------------------------------| 
D||--9-9-9-9---4-4-4-2-2-2-2---7-7-7-9-9-9-9---4-4-4-2-2-2-2----------| 
     . . . .   . . . . . . .   . . . . . . .   . . . . . . . 



Pre-Chorus 
Guitar 1: 
D||-------------------------------------------------------------------| 
A||-------------------------------------------------------------------| 
F||--9-9-9-9---4-4-4-2-2-2-2---8-8-8-9-9-9-9---4-4-4-2-2-2-2---2-2-2--| 
C||--9-9-9-9---4-4-4-2-2-2-2---7-7-7-9-9-9-9---4-4-4-2-2-2-2---2-2-2--| 
G||--x-x-x-x---x-x-x-x-x-x-x---x-x-x-x-x-x-x---x-x-x-x-x-x-x---x-x-x--| 
D||--9-9-9-9---4-4-4-2-2-2-2---7-7-7-9-9-9-9---4-4-4-2-2-2-2---2-2-2--| 


D||-------------------------------------------------------------------| 
A||-------------------------------------------------------------------| 
F||--9-9-9-9---4-4-4-2-2-2-2---8-8-8-9-9-9-9---4-4-4-2-2-2-2----------| 
C||--9-9-9-9---4-4-4-2-2-2-2---7-7-7-9-9-9-9---4-4-4-2-2-2-2----------| 
G||--x-x-x-x---x-x-x-x-x-x-x---x-x-x-x-x-x-x---x-x-x-x-x-x-x----------| 
D||--9-9-9-9---4-4-4-2-2-2-2---7-7-7-9-9-9-9---4-4-4-2-2-2-2----------| 


Guitar 2: 
D||---------------------------------------------------------------------| 
A||---------------------------------------------------------------------| 
F||---------------------------------------------------------------------| 
C||---------------------------------------------------------------------| 
G||---------------------------------------------------------------------| 
D||---------------------------------------------------------------------| 


D||------------------------------------------------------------4h5--p4--| 
A||---------------------------------------------------------------------| 
F||---------------------------------------------------------------------| 
C||---------------------------------------------------------------------| 
G||---------------------------------------------------------------------| 
D||---------------------------------------------------------------------| 



Chorus 
Guitar 1: 
D||--------------------------4h5--p4------------------------------------| 
A||--5-5-5-5-5-5-5-5-5-5-5-5----------7p5-5-5-5-5---------------5/7--5--| 
F||-----------------------------------------------4-4-4-6-6-6-6---------| 
C||---------------------------------------------------------------------| 
G||---------------------------------------------------------------------| 
D||---------------------------------------------------------------------| 


D||--------------------------4h5--p4------------------------------------| 
A||--5-5-5-5-5-5-5-5-5-5-5-5----------7p5-5-5-5-5---------------5/7--5--| 
F||-----------------------------------------------4-4---6-6-6-6---------| 
C||---------------------------------------------------------------------| 
G||---------------------------------------------------------------------| 
D||---------------------------------------------------------------------| 


Guitar 2: 
D||-------------------------------------------------------------------| 
A||-------------------------------------------------------------------| 
F||--9-9-9-9-9\4-4-4-2-2-2-2-2/8-8-8-9-9-9-9-9\4-4-4-2-2-2-2-2-2-2-2--| 
C||--9-9-9-9-9\4-4-4-2-2-2-2-2/7-7-7-9-9-9-9-9\4-4-4-2-2-2-2-2-2-2-2--| 
G||--x-x-x-x-x\x-x-x-x-x-x-x-x/x-x-x-x-x-x-x-x\x-x-x-x-x-x-x-x-x-x-x--| 
D||--9-9-9-9-9\4-4-4-2-2-2-2-2/7-7-7-9-9-9-9-9\4-4-4-2-2-2-2-2-2-2-2--| 


D||-------------------------------------------------------------------| 
A||-------------------------------------------------------------------| 
F||--9-9-9-9-9\4-4-4-2-2-2-2-2/8-8-8-9-9-9-9-9\4-4-4-2-2-2-2-2-2-2-2--| 
C||--9-9-9-9-9\4-4-4-2-2-2-2-2/7-7-7-9-9-9-9-9\4-4-4-2-2-2-2-2-2-2-2--| 
G||--x-x-x-x-x\x-x-x-x-x-x-x-x/x-x-x-x-x-x-x-x\x-x-x-x-x-x-x-x-x-x-x--| 
D||--9-9-9-9-9\4-4-4-2-2-2-2-2/7-7-7-9-9-9-9-9\4-4-4-2-2-2-2-2-2-2-2--| 



Verse 
Guitar 1: 
D||-------------------------------------------------------------------| 
A||-------------------------------------------------------------------| 
F||-------------------------------------------------------------------| 
C||------------------------------------------------------------4-4----| 
G||------------------------------------------------------------x-x----| 
D||--9-9-9-9-9-4-4-4-2-2-2-2-2-7-7-7-9-9-9-9-9-4-4-4-2-2-2-2-2-2-2-2--| 
     . . . . . . . . . . . . . . . . . . . . . . . . . . . . .     . 


D||-------------------------------------------------------------------| 
A||-------------------------------------------------------------------| 
F||-------------------------------------------------------------------| 
C||--------------------------------------------------4----4----4-4----| 
G||--------------------------------------------------x----x----x-x----| 
D||--9-9-9-9-9-4-4-4-2-2-2-2-2-7-7-7-9-9-9-9-9-4-4-4-2----2----2-2-0--| 
     . . . . . . . . . . . . . . . . . . . . . . . . 


Guitar 2: 
D||------------------------------------------------------------5-5-4--| 
A||------------------------------------------------------------7-7-5--| 
F||-------------------------------------------------------------------| 
C||-------------------------------------------------------------------| 
G||-------------------------------------------------------------------| 
D||-------------------------------------------------------------------| 


D||-------------------------------------------------------------------| 
A||--5-5-5-5-------------------7-7-5---5-5-5--------------------------| 
F||------------4-4-4-6-6-6-6-6-----------------4-4-4------------------| 
C||-------------------------------------------------------------------| 
G||-------------------------------------------------------------------| 
D||-------------------------------------------------------------------| 
     . . . .   . . . . . . . . . . .   . . .   . . . 



Pre-Chorus 
Guitar 1: 
D||-------------------------------------------------------------------| 
A||-------------------------------------------------------------------| 
F||--9-9-9-9---4-4-4-2-2-2-2---8-8-8-9-9-9-9---4-4-4------------------| 
C||--9-9-9-9---4-4-4-2-2-2-2---7-7-7-9-9-9-9---4-4-4------------------| 
G||--x-x-x-x---x-x-x-x-x-x-x---x-x-x-x-x-x-x---x-x-x------------------| 
D||--9-9-9-9---4-4-4-2-2-2-2---7-7-7-9-9-9-9---4-4-4------------------| 


Guitar 2: 
D||------------------------------------------------------------4h5--p4--| 
A||---------------------------------------------------------------------| 
F||---------------------------------------------------------------------| 
C||---------------------------------------------------x-x-x-x-----------| 
G||---------------------------------------------------x-x-x-x-----------| 
D||---------------------------------------------------x-x-x-x-----------| 



Chorus 
Guitar 1: 
D||--------------------------4h5--p4------------------------------------| 
A||--5-5-5-5-5-5-5-5-5-5-5-5----------7p5-5-5-5-5---------------5/7--5--| 
F||-----------------------------------------------4-4-4-6-6-6-6---------| 
C||---------------------------------------------------------------------| 
G||---------------------------------------------------------------------| 
D||---------------------------------------------------------------------| 


D||--------------------------4h5--p4---------------------------------------| 
A||--5-5-5-5-5-5-5-5-5-5-5-5----------7p5-5-5-5-5---------------5/7-7-5-5--| 
F||-----------------------------------------------4-4---6-6-6-6------------| 
C||------------------------------------------------------------------------| 
G||------------------------------------------------------------------------| 
D||------------------------------------------------------------------------| 


Guitar 2: 
D||-------------------------------------------------------------------| 
A||-------------------------------------------------------------------| 
F||--9-9-9-9-9\4-4-4-2-2-2-2-2/8-8-8-9-9-9-9-9\4-4-4-2-2-2-2-2-2-2-2--| 
C||--9-9-9-9-9\4-4-4-2-2-2-2-2/7-7-7-9-9-9-9-9\4-4-4-2-2-2-2-2-2-2-2--| 
G||--x-x-x-x-x\x-x-x-x-x-x-x-x/x-x-x-x-x-x-x-x\x-x-x-x-x-x-x-x-x-x-x--| 
D||--9-9-9-9-9\4-4-4-2-2-2-2-2/7-7-7-9-9-9-9-9\4-4-4-2-2-2-2-2-2-2-2--| 


D||-------------------------------------------------------------------| 
A||-------------------------------------------------------------------| 
F||--9-9-9-9-9\4-4-4-2-2-2-2-2/8-8-8-9-9-9-9-9\4-4-4-2-2-2-2-2-2-2-2--| 
C||--9-9-9-9-9\4-4-4-2-2-2-2-2/7-7-7-9-9-9-9-9\4-4-4-2-2-2-2-2-2-2-2--| 
G||--x-x-x-x-x\x-x-x-x-x-x-x-x/x-x-x-x-x-x-x-x\x-x-x-x-x-x-x-x-x-x-x--| 
D||--9-9-9-9-9\4-4-4-2-2-2-2-2/7-7-7-9-9-9-9-9\4-4-4-2-2-2-2-2-2-2-2--| 



Solo 
Guitar 1: 
D||--7-7-7-7-7-7-7-5-4----------------------7/9-7-------------------------------| 
A||--------------------7---5---7b9---7-5------------7/9-7~---5---7-7b9--r7p5-0--| 
F||-----------------------------------------------------------------------------| 
C||-----------------------------------------------------------------------------| 
G||-----------------------------------------------------------------------------| 
D||-----------------------------------------------------------------------------| 


D||-----4-----4---7---4-----4---7----------------------------------------------4b5--4--| 
A||--/5---5-7---5---5---5-7---5---5--------------------------5-5-5-5-5-5-7---5---------| 
F||----------------------------------4-4-4-4-4-4-6-6-6-6-6-6---------------------------| 
C||------------------------------------------------------------------------------------| 
G||------------------------------------------------------------------------------------| 
D||------------------------------------------------------------------------------------| 
          .     .   .   .     .   . 


Guitar 2: 
D||-------------------------------------------------------------------| 
A||-------------------------------------------------------------------| 
F||------------------2-2-2-2-2/8-8-8-9-9-9-9-9\4-4-4-2-2-2-2-2-2-2-2--| 
C||------------------2-2-2-2-2/7-7-7-9-9-9-9-9\4-4-4-2-2-2-2-2-2-2-2--| 
G||------------------x-x-x-x-x/x-x-x-x-x-x-x-x\x-x-x-x-x-x-x-x-x-x-x--| 
D||------------------2-2-2-2-2/7-7-7-9-9-9-9-9\4-4-4-2-2-2-2-2-2-2-2--| 


D||--------------------------------------------------------------------| 
A||----------------------------------------------------------22222222--| 
F||--9-9-9-9-9\4-4-4-2-2-2-2-2/8-8-8-9-9-9-9-9\4-4-4-2-2-2-2-----------| 
C||--9-9-9-9-9\4-4-4-2-2-2-2-2/7-7-7-9-9-9-9-9\4-4-4-2-2-2-2-----------| 
G||--x-x-x-x-x\x-x-x-x-x-x-x-x/x-x-x-x-x-x-x-x\x-x-x-x-x-x-x-----------| 
D||--9-9-9-9-9\4-4-4-2-2-2-2-2/7-7-7-9-9-9-9-9\4-4-4-2-2-2-2-----------| 
                                                             ........ 



Pre-Chorus 
Guitar 1: 
D||-------------------------------------------------------------------| 
A||-------------------------------------------------------------------| 
F||--9-9-9-9---4-4-4-2-2-2-2---8-8-8-9-9-9-9---4-4-4-2-2-2-2---2-2-2--| 
C||--9-9-9-9---4-4-4-2-2-2-2---7-7-7-9-9-9-9---4-4-4-2-2-2-2---2-2-2--| 
G||--x-x-x-x---x-x-x-x-x-x-x---x-x-x-x-x-x-x---x-x-x-x-x-x-x---x-x-x--| 
D||--9-9-9-9---4-4-4-2-2-2-2---7-7-7-9-9-9-9---4-4-4-2-2-2-2---2-2-2--| 


D||-------------------------------------------------------------------| 
A||-------------------------------------------------------------------| 
F||--9-9-9-9---4-4-4-2-2-2-2---8-8-8-9-9-9-9---4-4-4-2-2-2-2----------| 
C||--9-9-9-9---4-4-4-2-2-2-2---7-7-7-9-9-9-9---4-4-4-2-2-2-2----------| 
G||--x-x-x-x---x-x-x-x-x-x-x---x-x-x-x-x-x-x---x-x-x-x-x-x-x----------| 
D||--9-9-9-9---4-4-4-2-2-2-2---7-7-7-9-9-9-9---4-4-4-2-2-2-2----------| 


Guitar 2: 
D||---------------------------------------------------------------------| 
A||---------------------------------------------------------------------| 
F||---------------------------------------------------------------------| 
C||---------------------------------------------------------------------| 
G||---------------------------------------------------------------------| 
D||---------------------------------------------------------------------| 


D||---------------------------------------------------------------------| 
A||---------------------------------------------------------------------| 
F||---------------------------------------------------------------------| 
C||---------------------------------------------------------------------| 
G||---------------------------------------------------------------------| 
D||---------------------------------------------------------------------| 


D||--4h5--p4--| 
A||-----------| 
F||-----------| 
C||-----------| 
G||-----------| 
D||-----------| 



Chorus/Outro 
Guitar 1: 
D||--------------------------4h5--p4------------------------------------| 
A||--5-5-5-5-5-5-5-5-5-5-5-5----------7p5-5-5-5-5---------------5/7--5--| 
F||-----------------------------------------------4-4-4-6-6-6-6---------| 
C||---------------------------------------------------------------------| 
G||---------------------------------------------------------------------| 
D||---------------------------------------------------------------------| 


D||--------------------------4h5--p4------------------------------------| 
A||--5-5-5-5-5-5-5-5-5-5-5-5----------7p5-5-5-5-5---------------5/7--5--| 
F||-----------------------------------------------4-4-4-6-6-6-6---------| 
C||---------------------------------------------------------------------| 
G||---------------------------------------------------------------------| 
D||---------------------------------------------------------------------| 


D||--------------------------4h5--p4------------------------------------| 
A||--5-5-5-5-5-5-5-5-5-5-5-5----------7p5-5-5-5-5---------------5/7--5--| 
F||-----------------------------------------------4-4---6-6-6-6---------| 
C||---------------------------------------------------------------------| 
G||---------------------------------------------------------------------| 
D||---------------------------------------------------------------------| 


D||--------------------------4h5--p4------------------------------------| 
A||--5-5-5-5-5-5-5-5-5-5-5-5----------7p5-5-5-5-5---------------5/7--5--| 
F||-----------------------------------------------4-4-4-6-6-6-6---------| 
C||---------------------------------------------------------------------| 
G||---------------------------------------------------------------------| 
D||---------------------------------------------------------------------| 


Guitar 2: 
D||-------------------------------------------------------------------| 
A||-------------------------------------------------------------------| 
F||--9-9-9-9-9\4-4-4-2-2-2-2-2/8-8-8-9-9-9-9-9\4-4-4-2-2-2-2-2-2-2-2--| 
C||--9-9-9-9-9\4-4-4-2-2-2-2-2/7-7-7-9-9-9-9-9\4-4-4-2-2-2-2-2-2-2-2--| 
G||--x-x-x-x-x\x-x-x-x-x-x-x-x/x-x-x-x-x-x-x-x\x-x-x-x-x-x-x-x-x-x-x--| 
D||--9-9-9-9-9\4-4-4-2-2-2-2-2/7-7-7-9-9-9-9-9\4-4-4-2-2-2-2-2-2-2-2--| 


D||-------------------------------------------------------------------| 
A||-------------------------------------------------------------------| 
F||--9-9-9-9-9\4-4-4-2-2-2-2-2/8-8-8-9-9-9-9-9\4-4-4-2-2-2-2-2-2-2-2--| 
C||--9-9-9-9-9\4-4-4-2-2-2-2-2/7-7-7-9-9-9-9-9\4-4-4-2-2-2-2-2-2-2-2--| 
G||--x-x-x-x-x\x-x-x-x-x-x-x-x/x-x-x-x-x-x-x-x\x-x-x-x-x-x-x-x-x-x-x--| 
D||--9-9-9-9-9\4-4-4-2-2-2-2-2/7-7-7-9-9-9-9-9\4-4-4-2-2-2-2-2-2-2-2--| 


D||-------------------------------------------------------------------| 
A||-------------------------------------------------------------------| 
F||--9-9-9-9-9\4-4-4-2-2-2-2-2/8-8-8-9-9-9-9-9\4-4-4-2-2-2-2-2-2-2-2--| 
C||--9-9-9-9-9\4-4-4-2-2-2-2-2/7-7-7-9-9-9-9-9\4-4-4-2-2-2-2-2-2-2-2--| 
G||--x-x-x-x-x\x-x-x-x-x-x-x-x/x-x-x-x-x-x-x-x\x-x-x-x-x-x-x-x-x-x-x--| 
D||--9-9-9-9-9\4-4-4-2-2-2-2-2/7-7-7-9-9-9-9-9\4-4-4-2-2-2-2-2-2-2-2--| 


D||-------------------------------------------------------------------| 
A||-------------------------------------------------------------------| 
F||--9-9-9-9-9\4-4-4-2-2-2-2-2/8-8-8-9-9-9-9-9\4-4-4-2-2-2-2-2-2-2-2--| 
C||--9-9-9-9-9\4-4-4-2-2-2-2-2/7-7-7-9-9-9-9-9\4-4-4-2-2-2-2-2-2-2-2--| 
G||--x-x-x-x-x\x-x-x-x-x-x-x-x/x-x-x-x-x-x-x-x\x-x-x-x-x-x-x-x-x-x-x--| 
D||--9-9-9-9-9\4-4-4-2-2-2-2-2/7-7-7-9-9-9-9-9\4-4-4-2-2-2-2-2-2-2-2--| 



Guitar 1: 
D||---------------------------| 
A||---------------------------| 
F||--9-9-9-9---4-4-4-2-2-2-2--| 
C||--9-9-9-9---4-4-4-2-2-2-2--| 
G||--x-x-x-x---x-x-x-x-x-x-x--| 
D||--9-9-9-9---4-4-4-2-2-2-2--| 





************************************ 

| h   hammer-on 
| p   pull-off 
| b   bend 
| pb  pre-bend 
| r   release bend 
| ~   hold / vibrato 
| .   palm mute 
| /   slide up 
| \   slide down 
| *   pinch harmonic 
| '   natural harmonic 
| x   mute note 
| T   tap 

************************************ 
	  

Search Paypal
auto scroll beats size up size down change color hide chords drawings
tab show chords e-chords YouTube Clip e-chords hide all tabs e-chords go to top tab

share with facebook