Silverstein

home > Silverstein

A Hero Loses Everyday Tab

Silverstein

Difficulty: nolevelnolevel

by bombaXXX

tuner correct add songbook print version text version save to e-mail
chordsukulelecavacokeyboardtabbassdrumsharmonicsflute Guitar Pro
chords

A Hero Loses Everyday

  		(intro 

(guitar 1) 
eb||--------------------------------------------| 
bb||--------------------------------------------| 
Gb||--------------------------------------------| x4 
db||-22--22--33--33--22--22--33--333------------| 
ab||-22--22--33--33--22--22--33--333------------| 
db||-22--22--33--33--22--22--33--333------------| 

(pre-Refrão)(guitar 1) 
eb||------------------------------------------|-------------------------------------------| 
bb||------------------------------------------|-------------------------------------------| 
gb||----------5--4---------------10--9--------|-----------------4h5p4---------------------| 
Db||------3--------5 -------7---------10 -----|-22--22--22--2---------5--5----------------| 
ab||------3-----------------7-----------------|-22--22--22--2------------5----------------| 
db||-333333------------777777-----------------|-22--22--22--2------------5----------------| 

(intro) 
(pré-Chorus 1x) 

(Refrão) 
(guitar 1) 
eb||--------------------------------------------| 
bb||--------------------------------------------| 
Gb||--12----------------------------------------| x7 
db||------9-9-10-10-12-12-10-10-9-9-10-9-10-----| 
ab||--------------------------------------------| 
db||--------------------------------------------| 

(guitar 2) 
eb||--------------| 
bb||--------------| 
Gb||------5-------| x4 
db||--3---5---5---| 
ab||--3---3---5---| 
db||--3-------5---| 

(ponte) 
(guitar 1) 
eb||-------------------------------------------------------------------------------------------| 
bb||-------------------------------------------------------------------------------------------| 
Gb||-12-------12-------12-------12-------12-------12--9-------9------9------9------9------9----| x3 
db||----12-10----12-10---12-10----12-10----12-10--------9-10----9-10---9-10---9-10---9-10------| 
ab||-------------------------------------------------------------------------------------------| 
db||-------------------------------------------------------------------------------------------| 
(abafado) 

(guitar 2) 
eb||----------------------------------------------------| 
bb||----------------------------------------------------| 
gb||----------------------------------------------------| 
db||---------------------------------------333333-------| 
ab||-77----333----77----333----77-------333333333-------| 
db||-77----333----77----333----77----333333333333-------| 
                                    \abafado/ 
(verso) 
eb||-------------------------------------------------------------------------------------------| 
bb||-------------------------------------------------------------------------------------------| 
Gb||-12-------12-------12-------12-------12-------12-9-------9------9------9------9------9-----| x2 
db||----12-10----12-10---12-10----12-10----12-10------9-10----9-10---9-10---9-10---9-10--------| 
ab||-------------------------------------------------------------------------------------------| 
db||-------------------------------------------------------------------------------------------| 

eb||-----------------| 
bb||-----------------| 
Gb||-12--------------| (volta pro verso) 
db||----12-10-12-----| 
ab||-----------------| 
db||-----------------| 
(abafado) 

(guitar 2) 
eb||--------------------------------------------------------------------| 
bb||--------------------------------------------------------------------| 
Gb||--------------------------------------------------------------------| x2 
db||-77777777777722223333333333335555777777777777-10--333333333335555---| 
ab||-77777777777722223333333333335555777777777777-10--333333333335555---| 
db||-77777777777722223333333333335555777777777777-10--333333333335555---| 

(pre-Refrão) 
(guitar 1) 
eb||------------------------------------------|-------------------------------------------| 
bb||------------------------------------------|-------------------------------------------| 
gb||----------5--4---------------10--9--------|-----------------4h5p4---------------------| 
Db||------3--------5 -------7---------10 -----|-22--22--22--2---------5--5----------------| 
ab||------3-----------------7-----------------|-22--22--22--2------------5----------------| 
db||-333333------------777777-----------------|-22--22--22--2------------5----------------| 

(Refrão) 
(finalização) 

(guitar 1) 

eb||---------------------------------------|-------------------------------| 
bb||---------------------------------------|-------------------------------| 
gb||---------------------------------------|-------------------------------| 
db||-22--22--33--33--22--22--33--333-------|--22222233333322222233-333-----| 
ab||-22--22--33--33--22--22--33--333-------|--22222233333322222233-333-----| 
db||-22--22--33--33--22--22--33--333-------|--22222233333322222233-333-----| 

(guitar 2) 
eb||---------------------------------|----------------------------------------| 
bb||---------------------------------|----------------------------------------| 
gb||-12-------12-------9------9------|-12-------12-------9------9-------------| 
db||----12-10---12-10---9-10---9-10--|---12-10----12-10----9-10---9-10--------| 
ab||---------------------------------|----------------------------------------| 
db||---------------------------------|----------------------------------------| 

eb||-----------------------------------|----------------------------------------| 
bb||-----------------------------------|----------------------------------------| 
gb||-12-------12-------9------9--------|-12-------12-------9--------------------| 
db||----12-10---12-10----9-10---9-10---|----12-10---12-10-----------------------| 
ab||-----------------------------------|----------------------------------------| 
db||-----------------------------------|----------------------------------------| 
	  

Search Paypal
auto scroll beats size up size down change color hide chords drawings
tab show chords e-chords YouTube Clip e-chords hide all tabs e-chords go to top tab