Silverchair

Tomorrow (intro)

Silverchair

tabs Expert expert

by  GDT69

save to print version add songbook text version e-mail correct tuner
chordsukulelecavacokeyboardtabbassdrumsharmonicaflute Guitar Pro
close

there isn't a video lesson for this song

chords

Tomorrow (intro)

	  		Now i have tabbed this mainly cause every other  
tab i see has tabbed this part wrong. 
Intro: 
|-------0-------------0-------| 
|---------2---2---------2---2-| 
|-----------2-------------2---| 
|---2-------------2-----------| 
|-0---0---------0---0---------| 
|-----------------------------| 

|-------3p(2)------------------| 
|-----3----3-------------------| 
|---2--------2-----0-----0-----| 
|-0--------------0-----0-----0-| 
|--------------3-----2---------| 
|--------------------------3---| 

Now i may as well tab the whole thing 

verse: 
 A 
It's twelve o' clock 
           G        D     A|-3p(0)---| 
and it's a wonderful day  E|-------3-| 

reapeats same chord progression 

then play this chord 
|------------| 
|------------| 
|-7----------| 
|-7----------| 
|-5-3p(0)----| 
|-5-------3--| 

pre Chorus: 
|-----------------------------------------| 
|-----------------------------------------| 
|-2-2-2-X-X-2-2-4-4-X-5-------------5p(0)-| 
|-2-2-2-X-X-2-2-4-4-X-5-------5h(7)-------| 
|-0-0-0-X-X-0-0-2-2-X-3-5h(7)-------------| 
|---------------2-2-X-3-------------------| 

|---| 
|---| 
|-4-| 
|-4-| 
|-2-| 
|-2-| 

Pre verse2: 
|-5-5-10-12p(10)-----------8-8-10-12p(10)------------| 
|-5-5-10--------12p(10)----8-8-10---------12p(10)----| 
|-6-6-11----------------12-9-9-11-----------------12-| 
|-7-7-12-------------------101012--------------------| 
|-0-0-0--------------------0-0-0---------------------| 
|----------------------------------------------------| 


STUFF THE Chorus SLASH SOLO YOU WANT THEM LOOK AT THE OTHER TABS THEY ARE CORRECT 





		  

Full key step upFull key step up
Half key step upHalf key step up
Half key step downHalf key step down
Full key step downFull key step down
auto scroll beats size up size down change color hide chords drawings
tab show chords e-chords YouTube Clip e-chords hide all tabs e-chords go to top tab

share