Silverchair

Minor Threat

Silverchair

tabs

save to print version add songbook text version e-mail correct tuner
chordsukulelecavacokeyboardtabbassdrumsharmonicaflute Guitar Pro
close

there isn't a video lesson for this song

chords

Minor Threat

	  		{0:00} 
       D5/A    A5      E5/B    C5/G G5    x4 
e||---------------------------------------|| 
B||---------------------------------------|| 
G||-o-----------------------------------o-|| 
D||-o--7-7-7-7-7-7-7-7-9-9-9-9-5-5-5-5--o-|| 
A||----5-5-5-5-7-7-7-7-7-7-7-7-3-3-5-5----|| 
E||----5-5-5-5-5-5-5-5-7-7-7-7-3-3-3-3----|| 
 
{0:14} 
      D5/A    A5      E5/B    C5/G G5    x4 
||---------------------------------------|| 
||---------------------------------------|| 
||-o-----------------------------------o-|| 
||-o--7-7-7-7-7-7-7-7-9-9-9-9-5-5-5-5--o-|| 
||----5-5-5-5-7-7-7-7-7-7-7-7-3-3-5-5----|| 
||----5-5-5-5-5-5-5-5-7-7-7-7-3-3-3-3----|| 
We're not the first, I hope we're not the last 
'Cause I know we're all heading for that adult crash 
The time is so little, the time belongs to us 
Why is everybody in such a fucking rush?! 
 
{0:25} 
  B5      G5      B5      D5 
|-------------------------------| 
|-------------------------------| 
|-4-4-4-4---------4-4-4-4-7--7--| 
|-4-4-4-4-5-5-5-5-4-4-4-4-7--7--| 
|-2-2-2-2-5-5-5-5-2-2-2-2-5--5--| 
|---------3-3-3-3---------------| 
Make do with what you have 
Take what you can get 
Pay no mind to us 
We're just a minor threat 
 
{0:30} 
   D5/A A5 E5/B C5/G G5  x4 
||-----------------------|| 
||-----------------------|| 
||-o-------------------o-|| 
||-o--7-7-7-7-9-9-5-5--o-|| 
||----5-5-7-7-7-7-5-5----|| 
||----5-5-5-5-7-7-3-3----|| 
We're just a minor threat 
 
{0:45} 
      D5/A    A5      E5/B    C5/G G5    x4 
||---------------------------------------|| 
||---------------------------------------|| 
||-o-----------------------------------o-|| 
||-o--7-7-7-7-7-7-7-7-9-9-9-9-5-5-5-5--o-|| 
||----5-5-5-5-7-7-7-7-7-7-7-7-3-3-5-5----|| 
||----5-5-5-5-5-5-5-5-7-7-7-7-3-3-3-3----|| 
 
{0:56} 
      D5/A    A5      E5/B    C5/G G5    x4 
||---------------------------------------|| 
||---------------------------------------|| 
||-o-----------------------------------o-|| 
||-o--7-7-7-7-7-7-7-7-9-9-9-9-5-5-5-5--o-|| 
||----5-5-5-5-7-7-7-7-7-7-7-7-3-3-5-5----|| 
||----5-5-5-5-5-5-5-5-7-7-7-7-3-3-3-3----|| 
Early finish, I was late to start 
I might be an adult, but I'm a minor at heart 
Go to college, be a man, what's the fucking deal!? 
It's not how old I am, it's how old I feel 
 
{1:08} 
  B5      G5      B5      D5 
|-------------------------------| 
|-------------------------------| 
|-4-4-4-4---------4-4-4-4-7--7--| 
|-4-4-4-4-5-5-5-5-4-4-4-4-7--7--| 
|-2-2-2-2-5-5-5-5-2-2-2-2-5--5--| 
|---------3-3-3-3---------------| 
Take your time 
Try not to forget 
We never will 
We're just a minor threat 
 
{1:14} 
   D5/A A5 E5/B C5/G G5  x4 
||-----------------------|| 
||-----------------------|| 
||-o-------------------o-|| 
||-o--7-7-7-7-9-9-5-5--o-|| 
||----5-5-7-7-7-7-5-5----|| 
||----5-5-5-5-7-7-3-3----|| 
We're just a minor threat 
 
{1:28} 
  D5 
|----| 
|----| 
|-7\-| 
|-7\-| 
|-5\-| 
|----| 
And that's a promise 

		  

Full key step upFull key step up
Half key step upHalf key step up
Half key step downHalf key step down
Full key step downFull key step down
hide glossary

See also:

tabs Silverchair - Learn To Hate tabs Tame Impala - Alter Ego tabs Tonight Alive - The Ocean tabs Pendulum - Violet Hill tabs Tame Impala - The Bold Arrow Of Time tabs Silverchair - Cemetery
e-chords

Other versions:

tabs Pennywise - minor threat tabs Silverchair - Minor Threat tabs Rise Against - Minor Threat
auto scroll beats size up size down change color hide chords drawings
tab show chords e-chords YouTube Clip e-chords hide all tabs e-chords go to top tab

share