Sidewinder

Titanic Days

Sidewinder

tabs Beginner beginner

save to print version add songbook text version e-mail correct tuner
chordsukulelecavacokeyboardtabbassdrumsharmonicaflute Guitar Pro
close

there isn't a video lesson for this song

chords

Titanic Days

	  		INTRO RIFF:  
 
e----------------------------- 
B----------------------------- 
G--9b--9b--9b--9b--12-14--12-- 
D----------------------------- 
A----------------------------- 
E----------------------------- 
 
VERSE: (PART ONE)  
The verse is split up into two parts. Let the notes ring for the first 
part of the verse. 
 
e--7--|--5--|--5--5--|--7--|-- 
B--7--|--5--|--5--5--|--7--|-- 
G--9--|--6--|--7--6--|--9--|-- 
D--9--|--7--|--7--7--|--9--|-- 
A--7--|--7--|--5--7--|--7--|-- 
E--7--|--5--|--5--5--|--7--|-- 
 
VERSE: (PART TWO) 
For this part of the verse you strike the chords. 
 
e--5-5-5-5--|--5-5-5-5--|--7--|-- 
B--5-5-5-5--|--5-5-5-5--|--7--|-- 
G--6-6-6-6--|--7-7-7-7--|--9--|-- 
D--7-7-7-7--|--7-7-7-7--|--9--|-- 
A--7-7-7-7--|--5-5-5-5--|--7--|-- 
E--5-5-5-5--|--5-5-5-5--|--7--|-- 
 
?.......................Titanic days..? 
 
CHORUS: 
 
e--7--|--5--|--7--|--5--|-- 
B--7--|--5--|--7--|--5--|-- 
G--9--|--7--|--9--|--6--|-- 
D--9--|--7--|--9--|--7--|-- 
A--7--|--5--|--7--|--7--|-- 
E--7--|--5--|--7--|--5--|-- 
 
?You looked for me in all the wrong places....? 
 
Play that bit of the chorus twice and then play this progression to end 
the chorus 
 
e--7--|--5--|-- 
B--7--|--5--|-- 
G--9--|--7--|-- 
D--9--|--7--|-- 
A--7--|--5--|-- 
E--7--|--5--|-- 
 
Before you head back into the verse: 
 
e--7-7-7---10-- 
B--7-7-7---10-- 
G--9-9-9---12-- 
D--9-9-9---12-- 
A--7-7-7---10-- 
E--7-7-7---10-- 
 
The song goes: intro riff | verse pt1 | verse pt2 | verse pt1 | verse 
pt2 | chorus | verse pt1 | verse pt2 | verse pt1 | verse pt2 | chorus | 
solo | chorus
		  

See also:

tabs John Butler Trio - Life Ain't What It Seems tabs The Choirboys - Run To Paradise (solo) tabs Miscellaneous / Australiana - Collingwood Football Club Theme Song tabs Pete Murray - Please tabs Xavier Rudd - Shelter tabs John Butler Trio - Crazy
e-chords

Other versions:

tabs Sidewinder - Titanic Days
auto scroll beats size up size down change color hide chords drawings
tab show chords e-chords YouTube Clip e-chords hide all tabs e-chords go to top tab

share