Short Stack

I Dont Wanna Get Better

Short Stack

tabs

by  EDSOOLIVEIRA

save to print version add songbook text version e-mail correct tuner
chordsukulelecavacokeyboardtabbassdrumsharmonicaflute Guitar Pro
close

there isn't a video lesson for this song

chords

I Dont Wanna Get Better

	  		Intro: 
e|---------------------------| 
B|---------------------------| 
G|---------------------------| 
D|--0--(Plays continuously)--| 
A|---------------------------| 
E|---------------------------| 


Verse: 
"But tonight..." 
e|---------------------------10----10----10----9----9----9----9----| 
B|-----------------------------10----10----10---10---10---10---10--| 
G|-----------------------------------------------------------------| 
D|-5-----7-----9-----12--------------------------------------------| 
A|-5-----7-----9-----12--------------------------------------------| 
E|-3-x4--5-x4--7-x4--10-x4-----------------------------------------| x2 


Bass break 


verse 2: 
"But tonight..." 
e|----------------------------|------------------------------------------------| 
B|----------------------------|------------------------------------------------| 
G|----------------------------|----7-----6-----7-----11-----9-----7------------| 
D|--5-----7-----9-----11------|----7-----6-----7-----11-----9-----7------------| 
A|--5-----7-----9-----11------|----5-x3--4-x3--5-x2---9-x3--7-x3--5-x2---x2----| 
E|--3-x4--5-x4--7-x4---9-x4---|------------------------------------------------| 


Chorus: 
"I don't wanna get better..." 
e|------------------------------| 
B|------------------------------| 
G|--7---------------------------| 
D|--7------7------9------5------| 
A|--5-x16--7------9------5------| 
E|---------5-x16--7-x16--3-x16--| 

Before Bridge: 
e|---------------------------------------------------------------------------| 
B|---------------------------------------------------------------------------| 
G|--7-----6-----7-----6-----7-----6-----7-----------11-----7-----------------| 
D|--7-----6-----7-----6-----7-----6-----7-----5-----11-----7-----------------| 
A|--5-x3--4-x3--5-x5--4-x3--5-x5--4-x3--5-x2--5------9-x3--5-x2--------------| 
E|--------------------------------------------3-x3---------------------------| 

e|---------------------------------------------------------------------------| 
B|---------------------------------------------------------------------------| 
G|--7-----6-----7-----11-----9-----7-----6-----7-------11-11--11-11--11------| 
D|--7-----6-----7-----11-----9-----7-----6-----7-------11-11--11-11--11------| 
A|--5-x3--4-x3--5-x2---9-x3--7-x3--5-x5--4-x3--5-x2-----9--9---9--9---9------| 
E|---------------------------------------------------------------------------| 


Bridge: 
"But tonight..." 
e|---------------------| 
B|---------------------| 
G|---------------------| 
D|---------------------| 
A|---------5-x32-------| 
E|--3-x32--------------| x2 


Last Chorus: 
e|------------------------------| 
B|------------------------------| 
G|--7---------------------------| 
D|--7------7------9------5------| 
A|--5-x16--7------9------5------| 
E|---------5-x16--7-x16--3-x16--| x3 

e|---------------------------------------------------| 
B|---------------------------------------------------| 
G|--7-----6-----7-----11-----9-----7-----7~----------| 
D|--7-----6-----7-----11-----9-----7-----7~----------| 
A|--5-x3--4-x3--5-x2---9-x3--7-x3--5-x2--5~----------| 
E|---------------------------------------------------| 


************************************* 

| /   slide up 
| \   slide down 
| h   hammer-on 
| p   pull-off 
| ~   vibrato 
| +   harmonic 
| x   Mute note 
| b   Bend 
| pb  Pre-bend 
| br  Bend release 
| pbr Pre-bend release 
| brb Bend release bend 

************************************* 
		  

See also:

tabs Idir - A Vava Inouva tabs Misc Computer Games - Mii Channel Music tabs Prototype - The Way It Ends tabs Misc Television - Marvels The Punisher - Main Theme tabs Misc Computer Games - Assassins Creed Black Flag - Randy Dandy O tabs Andy James - Separation
e-chords

Other versions:

tabs Short Stack - I Dont Wanna Get Better
auto scroll beats size up size down change color hide chords drawings
tab show chords e-chords YouTube Clip e-chords hide all tabs e-chords go to top tab

share