Shoes And Socks Off

Made Tab

Shoes And Socks Off

Difficulty: nolevelnolevel

by brunblazkowski

tuner correct add songbook print version text version save to e-mail
chordsukulelecavacokeyboardtabbassdrumsharmonicsflute Guitar Pro
close

there isn't a video lesson for this song

request
chords

Made

Key:  C More
Made Key GG
Made Key G#G#
Made Key AA
Made Key A#A#(one step down)
Made Key BB(half step down)
Made Key CC(original key)
Made Key C#C#(half step up)
Made Key DD(one step up)
Made Key D#D#
Made Key EE
Made Key FF
Made Key F#F#
  		Intro 

d#|---------| 
Bb|-x---x-x-| 
F#|-x---x-x-| 
C#|-x---x-x-| 
G#|-x---x-x-| 
D#|---------| 

    B                D#m     B                D#m       G#m              E       G#m              E 
d#|---------------------------------------------------|---------------------------------------------------| 
Bb|-1---1---1--1-1-1-0---0-0-1---1---1--1-1-1-0---0-0-|-1---1---1--1-1-1-1---1-1-1---1---1--1-1-1-1---1-1-| 
F#|-0---0---0--0-0-0-0---0-0-0---0---0--0-0-0-0---0-0-|-2---2---2--2-2-2-2---2-2-2---2---2--2-2-2-2---2-2-| 
C#|-2---2---2--2-2-2-2---2-2-2---2---2--2-2-2-2---2-2-|-2---2---2--2-2-2-3---3-3-2---2---2--2-2-2-3---3-3-| 
G#|-3---3---3--3-3-3-2---2-2-3---3---3--3-3-3-2---2-2-|-0---0---0--0-0-0-3---3-3-0---0---0--0-0-0-3---3-3-| 
D#|-3---3---3--3-3-3-0-------3---3---3--3-3-3-0-------|---------------------------------------------------| 

    B                D#m     B                D#m       G#m              E       G#m              E 
d#|---------------------------------------------------|---------------------------------------------------| 
Bb|-1---1---1--1-1-1-0---0-0-1---1---1--1-1-1-0---0-0-|-1---1---1--1-1-1-1---1-1-1---1---1--1-1-1-1---1-1-| 
F#|-0---0---0--0-0-0-0---0-0-0---0---0--0-0-0-0---0-0-|-2---2---2--2-2-2-2---2-2-2---2---2--2-2-2-2---2-2-| 
C#|-2---2---2--2-2-2-2---2-2-2---2---2--2-2-2-2---2-2-|-2---2---2--2-2-2-3---3-3-2---2---2--2-2-2-3---3-3-| 
G#|-3---3---3--3-3-3-2---2-2-3---3---3--3-3-3-2---2-2-|-0---0---0--0-0-0-3---3-3-0---0---0--0-0-0-3---3-3-| 
D#|-3---3---3--3-3-3-0-------3---3---3--3-3-3-0-------|---------------------------------------------------| 


Verse 

    B                D#m     B                D#m       G#m              E       G#m              E 
d#|---------------------------------------------------|---------------------------------------------------| 
Bb|-1---1---1--1-1-1-0---0-0-1---1---1--1-1-1-0---0-0-|-1---1---1--1-1-1-1---1-1-1---1---1--1-1-1-1---1-1-| 
F#|-0---0---0--0-0-0-0---0-0-0---0---0--0-0-0-0---0-0-|-2---2---2--2-2-2-2---2-2-2---2---2--2-2-2-2---2-2-| 
C#|-2---2---2--2-2-2-2---2-2-2---2---2--2-2-2-2---2-2-|-2---2---2--2-2-2-3---3-3-2---2---2--2-2-2-3---3-3-| 
G#|-3---3---3--3-3-3-2---2-2-3---3---3--3-3-3-2---2-2-|-0---0---0--0-0-0-3---3-3-0---0---0--0-0-0-3---3-3-| 
D#|-3---3---3--3-3-3-0-------3---3---3--3-3-3-0-------|---------------------------------------------------| 
   You either do or you dont I dont know how you dont know  
                                                 Not being funny but theres something up with what youre doing 

    B                D#m     B                D#m       G#m              E       G#m              E 
d#|---------------------------------------------------|---------------------------------------------------| 
Bb|-1---1---1--1-1-1-0---0-0-1---1---1--1-1-1-0---0-0-|-1---1---1--1-1-1-1---1-1-1---1---1--1-1-1-1---1-1-| 
F#|-0---0---0--0-0-0-0---0-0-0---0---0--0-0-0-0---0-0-|-2---2---2--2-2-2-2---2-2-2---2---2--2-2-2-2---2-2-| 
C#|-2---2---2--2-2-2-2---2-2-2---2---2--2-2-2-2---2-2-|-2---2---2--2-2-2-3---3-3-2---2---2--2-2-2-3---3-3-| 
G#|-3---3---3--3-3-3-2---2-2-3---3---3--3-3-3-2---2-2-|-0---0---0--0-0-0-3---3-3-0---0---0--0-0-0-3---3-3-| 
D#|-3---3---3--3-3-3-0-------3---3---3--3-3-3-0-------|---------------------------------------------------| 
    What will you do with your time but practice all of your lines  
                                                   I'd rather know but no you say youve got to think about it  


Chorus 

    B                D#m     B                D#m       G#m              E       G#m              E 
d#|---------------------------------------------------|---------------------------------------------------| 
Bb|-1---1---1--1-1-1-0---0-0-1---1---1--1-1-1-0---0-0-|-1---1---1--1-1-1-1---1-1-1---1---1--1-1-1-1---1-1-| 
F#|-0---0---0--0-0-0-0---0-0-0---0---0--0-0-0-0---0-0-|-2---2---2--2-2-2-2---2-2-2---2---2--2-2-2-2---2-2-| 
C#|-2---2---2--2-2-2-2---2-2-2---2---2--2-2-2-2---2-2-|-2---2---2--2-2-2-3---3-3-2---2---2--2-2-2-3---3-3-| 
G#|-3---3---3--3-3-3-2---2-2-3---3---3--3-3-3-2---2-2-|-0---0---0--0-0-0-3---3-3-0---0---0--0-0-0-3---3-3-| 
D#|-3---3---3--3-3-3-0-------3---3---3--3-3-3-0-------|---------------------------------------------------| 
    it                          you have to think about it                        you have to think about 

    B                D#m     B                D#m       G#m              E       G#m              E 
d#|---------------------------------------------------|---------------------------------------------------| 
Bb|-1---1---1--1-1-1-0---0-0-1---1---1--1-1-1-0---0-0-|-1---1---1--1-1-1-1---1-1-1---1---1--1-1-1-1---1-1-| 
F#|-0---0---0--0-0-0-0---0-0-0---0---0--0-0-0-0---0-0-|-2---2---2--2-2-2-2---2-2-2---2---2--2-2-2-2---2-2-| 
C#|-2---2---2--2-2-2-2---2-2-2---2---2--2-2-2-2---2-2-|-2---2---2--2-2-2-3---3-3-2---2---2--2-2-2-3---3-3-| 
G#|-3---3---3--3-3-3-2---2-2-3---3---3--3-3-3-2---2-2-|-0---0---0--0-0-0-3---3-3-0---0---0--0-0-0-3---3-3-| 
D#|-3---3---3--3-3-3-0-------3---3---3--3-3-3-0-------|---------------------------------------------------| 
    it                          you have to think about it                     whats there to think about 


Verse 

    B                D#m     B                D#m       G#m              E       G#m              E 
d#|---------------------------------------------------|---------------------------------------------------| 
Bb|-1---1---1--1-1-1-0---0-0-1---1---1--1-1-1-0---0-0-|-1---1---1--1-1-1-1---1-1-1---1---1--1-1-1-1---1-1-| 
F#|-0---0---0--0-0-0-0---0-0-0---0---0--0-0-0-0---0-0-|-2---2---2--2-2-2-2---2-2-2---2---2--2-2-2-2---2-2-| 
C#|-2---2---2--2-2-2-2---2-2-2---2---2--2-2-2-2---2-2-|-2---2---2--2-2-2-3---3-3-2---2---2--2-2-2-3---3-3-| 
G#|-3---3---3--3-3-3-2---2-2-3---3---3--3-3-3-2---2-2-|-0---0---0--0-0-0-3---3-3-0---0---0--0-0-0-3---3-3-| 
D#|-3---3---3--3-3-3-0-------3---3---3--3-3-3-0-------|---------------------------------------------------| 
    And how do you expect me to sleep with what you said on repeat  
                                                      My head is not my friend in fact I want him out of here  

    B                D#m     B                D#m       G#m              E       G#m              E 
d#|---------------------------------------------------|---------------------------------------------------| 
Bb|-1---1---1--1-1-1-0---0-0-1---1---1--1-1-1-0---0-0-|-1---1---1--1-1-1-1---1-1-1---1---1--1-1-1-1---1-1-| 
F#|-0---0---0--0-0-0-0---0-0-0---0---0--0-0-0-0---0-0-|-2---2---2--2-2-2-2---2-2-2---2---2--2-2-2-2---2-2-| 
C#|-2---2---2--2-2-2-2---2-2-2---2---2--2-2-2-2---2-2-|-2---2---2--2-2-2-3---3-3-2---2---2--2-2-2-3---3-3-| 
G#|-3---3---3--3-3-3-2---2-2-3---3---3--3-3-3-2---2-2-|-0---0---0--0-0-0-3---3-3-0---0---0--0-0-0-3---3-3-| 
D#|-3---3---3--3-3-3-0-------3---3---3--3-3-3-0-------|---------------------------------------------------| 
    I think I already know but I cant help but to hope  
                                                   I'd rather know but no you say youve got to think about it  


Chorus 

    B                D#m     B                D#m       G#m              E       G#m              E 
d#|---------------------------------------------------|---------------------------------------------------| 
Bb|-1---1---1--1-1-1-0---0-0-1---1---1--1-1-1-0---0-0-|-1---1---1--1-1-1-1---1-1-1---1---1--1-1-1-1---1-1-| 
F#|-0---0---0--0-0-0-0---0-0-0---0---0--0-0-0-0---0-0-|-2---2---2--2-2-2-2---2-2-2---2---2--2-2-2-2---2-2-| 
C#|-2---2---2--2-2-2-2---2-2-2---2---2--2-2-2-2---2-2-|-2---2---2--2-2-2-3---3-3-2---2---2--2-2-2-3---3-3-| 
G#|-3---3---3--3-3-3-2---2-2-3---3---3--3-3-3-2---2-2-|-0---0---0--0-0-0-3---3-3-0---0---0--0-0-0-3---3-3-| 
D#|-3---3---3--3-3-3-0-------3---3---3--3-3-3-0-------|---------------------------------------------------| 
    it                          you have to think about it                        you have to think about 

    B                D#m     B                D#m       G#m              E       G#m              E 
d#|---------------------------------------------------|---------------------------------------------------| 
Bb|-1---1---1--1-1-1-0---0-0-1---1---1--1-1-1-0---0-0-|-1---1---1--1-1-1-1---1-1-1---1---1--1-1-1-1---1-1-| 
F#|-0---0---0--0-0-0-0---0-0-0---0---0--0-0-0-0---0-0-|-2---2---2--2-2-2-2---2-2-2---2---2--2-2-2-2---2-2-| 
C#|-2---2---2--2-2-2-2---2-2-2---2---2--2-2-2-2---2-2-|-2---2---2--2-2-2-3---3-3-2---2---2--2-2-2-3---3-3-| 
G#|-3---3---3--3-3-3-2---2-2-3---3---3--3-3-3-2---2-2-|-0---0---0--0-0-0-3---3-3-0---0---0--0-0-0-3---3-3-| 
D#|-3---3---3--3-3-3-0-------3---3---3--3-3-3-0-------|---------------------------------------------------| 
    it                          you have to think about it                     whats there to think about 


Outro 

    B                D#m     B                D#m       G#m              E       G#m              E 
d#|---------------------------------------------------|---------------------------------------------------| 
Bb|-1---1---1--1-1-1-0---0-0-1---1---1--1-1-1-0---0-0-|-1---1---1--1-1-1-1---1-1-1---1---1--1-1-1-1---1-1-| 
F#|-0---0---0--0-0-0-0---0-0-0---0---0--0-0-0-0---0-0-|-2---2---2--2-2-2-2---2-2-2---2---2--2-2-2-2---2-2-| 
C#|-2---2---2--2-2-2-2---2-2-2---2---2--2-2-2-2---2-2-|-2---2---2--2-2-2-3---3-3-2---2---2--2-2-2-3---3-3-| 
G#|-3---3---3--3-3-3-2---2-2-3---3---3--3-3-3-2---2-2-|-0---0---0--0-0-0-3---3-3-0---0---0--0-0-0-3---3-3-| 
D#|-3---3---3--3-3-3-0-------3---3---3--3-3-3-0-------|---------------------------------------------------| 

    B                D#m     B                D#m       G#m              E       G#m              E 
d#|---------------------------------------------------|---------------------------------------------------| 
Bb|-1---1---1--1-1-1-0---0-0-1---1---1--1-1-1-0---0-0-|-1---1---1--1-1-1-1---1-1-1---1---1--1-1-1-1---1-1-| 
F#|-0---0---0--0-0-0-0---0-0-0---0---0--0-0-0-0---0-0-|-2---2---2--2-2-2-2---2-2-2---2---2--2-2-2-2---2-2-| 
C#|-2---2---2--2-2-2-2---2-2-2---2---2--2-2-2-2---2-2-|-2---2---2--2-2-2-3---3-3-2---2---2--2-2-2-3---3-3-| 
G#|-3---3---3--3-3-3-2---2-2-3---3---3--3-3-3-2---2-2-|-0---0---0--0-0-0-3---3-3-0---0---0--0-0-0-3---3-3-| 
D#|-3---3---3--3-3-3-0-------3---3---3--3-3-3-0-------|---------------------------------------------------| 

    B 
d#|----------------------------------------------------| 
Bb|-1--------------------------------------------------| 
F#|-0--------------------------------------------------| 
C#|-2--------------------------------------------------| 
G#|-3--------------------------------------------------| 
D#|-3--------------------------------------------------| 


Lead parts 

There are some lead parts playing over the end of the track. Firstly some trem picked harmonics at the  
12th fret something like this: 

    B                D#m     B                D#m        G#m              E       G#m              E 
d#|----------------------------12tr--------------------|-------------------------12tr-----------------------| 
Bb|-----------------------------------------12tr-------|---------------------------------------12tr---------| 
F#|-12tr-----------------------------------------------|-12tr-----------------------------------------------| 
C#|----------------------------------------------------|----------------------------------------------------| 
G#|----------------------------------------------------|----------------------------------------------------| 
D#|----------------------------------------------------|----------------------------------------------------| 

And finally this descending part with a choppy effect:  

    B                D#m     B                D#m        G#m              E       G#m              E 
d#|----------------------------------------------------|----------------------------------------------------| 
Bb|-10---------8----------5----------3-----------------|-1--------------------------------------------------| 
F#|-----9---------7----------5----------4-------5--2---|--2-------------------------------------------------| 
C#|----------------------------------------------------|---2------------------------------------------------| 
G#|----------------------------------------------------|----0-----------------------------------------------| 
D#|----------------------------------------------------|----------------------------------------------------| 



*********************************** 

| x  - dead note 
| tr - tremelo pick 

*********************************** 
	  

Search Paypal
auto scroll beats size up size down change color hide chords drawings
tab show chords e-chords YouTube Clip e-chords hide all tabs e-chords go to top tab

share with facebook