Shinedown

Yer Majesty

Shinedown

tabs

by  FAMOUSA

save to print version add songbook text version e-mail correct tuner
chordsukulelecavacokeyboardtabbassdrumsharmonicaflute Guitar Pro
close

there isn't a video lesson for this song

chords

Yer Majesty

	  		INTRO 
 
Eb:-----------------------------------------------------\ 
Bb:-----------------------------------------------------\ 
Gb:-----------------------------------------------------\ 
Db:-----------------------------------0-----------------\ 
Ab:--------------3----------------3-----3--0------------\ 
Db:---0--3--0--3-------0--3--0--3-------------5--0--3---\ 
 
VERSE 
 
Eb:--------------------------------------------------------------\ 
Bb:--------------------------------------------------------------\ 
Gb:--------------------------------------------------------------\ 
Db:-----------------x-x-x-x-x-----------------0------------------\ 
Ab:--------------3--x-x-x-x-x-------------3------3--0------------\ 
Db:---0--3--0--3----x-x-x-x-x--0--3--0--3--------------5--0--3---\ 
 
Eb:------------------------------------------------------------\ 
Bb:------------------------------------------------------------\ 
Gb:------------------------------------------------------------\ 
Db:------------------3--5-5------------------0-----------------\ 
Ab:--------------3---3--5-5--------------3-----3--0------------\ 
Db:---0--3--0--3-----3--5-5---0--3--0--3-------------5--0--3---\ 
 
Eb:--------------------------------------------------------------\ 
Bb:--------------------------------------------------------------\ 
Gb:--------------------------------------------------------------\ 
Db:-----------------x-x-x-x-x-----------------0------------------\ 
Ab:--------------3--x-x-x-x-x-------------3------3--0------------\ 
Db:---0--3--0--3----x-x-x-x-x--0--3--0--3--------------5--0--3---\ 
 
 
 
Eb:------------------------------------------------------\ 
Bb:------------------------------------------------------\ 
Gb:------------------------------------------------------\ 
Db:------------------5-5-----------------0---------------\ 
Ab:--------------3---5-5--------------3----3--0----------\ 
Db:---0--3--0--3-----5-5---0--3--0--3-----------5--0--3--\ 
 
PRE-Chorus 
 
Eb:----------------------------------------------\ 
Bb:----------------------------------------------\ 
Gb:----------------------------------------------\ 
Db:----------------------------------------------\ 
Ab:---12p10--12p10--12p10--12p10--12p10--12p10---\ 
Db:----------------------------------------------\ 
 
Eb:---------------------------------------\ 
Bb:---------------------------------------\ 
Gb:---------------------------------------\ 
Db:-------------------------------3-3-3---\ 
Ab:---12p10--12p10--12p10--12p10--3-3-3---\ 
Db:-------------------------------3-3-3---\ 
 
Eb:----------------------------------------------\ 
Bb:----------------------------------------------\ 
Gb:----------------------------------------------\ 
Db:----------------------------------------------\ 
Ab:---12p10--12p10--12p10--12p10--12p10--12p10---\ 
Db:----------------------------------------------\ 
 
Eb:-------------------------------------\ 
Bb:-------------------------------------\ 
Gb:-------------------------------------\ 
Db:------10-10-----10-----10-10----10---\ 
Ab:---12--------12-----12-------12------\ 
Db:-------------------------------------\ 
 
Chorus 
 
Eb:---------------------------\ 
Bb:---------------------------\ 
Gb:---------------------------\ 
Db:---7---3---5---3---2---0---\  3x 
Ab:---7---3---5---3---2---0---\ 
Db:---7---3---5---3---2---0---\ 
 
Eb:------------------------------------\ 
Bb:------------------------------------\ 
Gb:------------------------------------\ 
Db:---7---3---5---7--8----0--0-----3---\ 
Ab:---7---3---5---7--8----0--0-----3---\ 
Db:---7---3---5---7--8----0--0-----3---\ 
 
VERSE II 
 
Eb:--------------------------------------------------------------\ 
Bb:--------------------------------------------------------------\ 
Gb:--------------------------------------------------------------\ 
Db:-----------------x-x-x-x-x-----------------0------------------\ 
Ab:--------------3--x-x-x-x-x-------------3------3--0------------\ 
Db:---0--3--0--3----x-x-x-x-x--0--3--0--3--------------5--0--3---\ 
 
Eb:------------------------------------------------------------\ 
Bb:------------------------------------------------------------\ 
Gb:------------------------------------------------------------\ 
Db:------------------3--5-5------------------0-----------------\ 
Ab:--------------3---3--5-5--------------3-----3--0------------\ 
Db:---0--3--0--3-----3--5-5---0--3--0--3-------------5--0--3---\ 
 
Eb:--------------------------------------------------------------\ 
Bb:--------------------------------------------------------------\ 
Gb:--------------------------------------------------------------\ 
Db:-----------------x-x-x-x-x-----------------0------------------\ 
Ab:--------------3--x-x-x-x-x-------------3------3--0------------\ 
Db:---0--3--0--3----x-x-x-x-x--0--3--0--3--------------5--0--3---\ 
 
 
 
Eb:------------------------------------------------------\ 
Bb:------------------------------------------------------\ 
Gb:------------------------------------------------------\ 
Db:------------------5-5-----------------0---------------\ 
Ab:--------------3---5-5--------------3----3--0----------\ 
Db:---0--3--0--3-----5-5---0--3--0--3-----------5--0--3--\ 
 
PRE-Chorus 
 
Eb:----------------------------------------------\ 
Bb:----------------------------------------------\ 
Gb:----------------------------------------------\ 
Db:----------------------------------------------\ 
Ab:---12p10--12p10--12p10--12p10--12p10--12p10---\ 
Db:----------------------------------------------\ 
 
Eb:---------------------------------------\ 
Bb:---------------------------------------\ 
Gb:---------------------------------------\ 
Db:-------------------------------3-3-3---\ 
Ab:---12p10--12p10--12p10--12p10--3-3-3---\ 
Db:-------------------------------3-3-3---\ 
 
Eb:----------------------------------------------\ 
Bb:----------------------------------------------\ 
Gb:----------------------------------------------\ 
Db:----------------------------------------------\ 
Ab:---12p10--12p10--12p10--12p10--12p10--12p10---\ 
Db:----------------------------------------------\ 
 
Eb:-------------------------------------\ 
Bb:-------------------------------------\ 
Gb:-------------------------------------\ 
Db:------10-10-----10-----10-10----10---\ 
Ab:---12--------12-----12-------12------\ 
Db:-------------------------------------\ 
 
Chorus 
 
Eb:---------------------------\ 
Bb:---------------------------\ 
Gb:---------------------------\ 
Db:---7---3---5---3---2---0---\  3x 
Ab:---7---3---5---3---2---0---\ 
Db:---7---3---5---3---2---0---\ 
 
Eb:------------------------------------\ 
Bb:------------------------------------\ 
Gb:------------------------------------\ 
Db:---7---3---5---7--8----0--0-----3---\ 
Ab:---7---3---5---7--8----0--0-----3---\ 
Db:---7---3---5---7--8----0--0-----3---\ 
 
SOLO ( Hold on to your butts ) 
 
Eb:---------------------------------------------\ 
Bb:---9--9--9--9--9--9h10p9--7--9--9--7--7--7---\ 
Gb:---------------------------------------------\ 
Db:---------------------------------------------\  2x 
Ab:---------------------------------------------\ 
Db:---------------------------------------------\ 
 
Eb:---9--9--9------------------------------------------\ 
Bb:-----------9p7--5--7h9p7--5-------------------------\ 
Gb:----------------------------6---9--9--9--9p7--5-----\ 
Db:------------------------------------------------6---\ 
Ab:----------------------------------------------------\ 
Db:----------------------------------------------------\ 
 
Eb:-----7---7---7---7---7---10---12---12--1--12--14--14h16p14--9---\ 
Bb:---9---9---9---9---9---9----9-----------------------------------\ 
Gb:----------------------------------------------------------------\ 
Db:----------------------------------------------------------------\ 
Ab:----------------------------------------------------------------\ 
Db:----------------------------------------------------------------\ 
 
Chorus 
 
Eb:---------------------------\ 
Bb:---------------------------\ 
Gb:---------------------------\ 
Db:---7---3---5---3---2---0---\  3x 
Ab:---7---3---5---3---2---0---\ 
Db:---7---3---5---3---2---0---\ 
 
Eb:------------------------------------\ 
Bb:------------------------------------\ 
Gb:------------------------------------\ 
Db:---7---3---5---7--8----0--0-----3---\ 
Ab:---7---3---5---7--8----0--0-----3---\ 
Db:---7---3---5---7--8----0--0-----3---\ 
 
Eb:-------------------------------------\ 
Bb:-------------------------------------\ 
Gb:-------------------------------------\ 
Db:---0--3--0--7--3--0--3--0--7--0--3---\  4x 
Ab:---0--3--0--7--3--0--3--0--7--0--3---\ 
Db:---0--3--0--7--3--0--3--0--7--0--3---\ 
 
 
 
NOTE: Pretty good song. Better played on an electric then an 
      acoustic but either way it sounds good. The solo is a 
      little tricky but hey, you gotta start somewhere, right? 
      Anyway, for those of you that like the song 'Beyond the sun', 
      that's headed this way. Well... ...ENJOY!!!   
 
 
 
 

		  

See also:

tabs Bon Jovi - It's My Life tabs Kiss - Forever tabs Aerosmith - Dream On tabs Foo Fighters - Everlong (acústico) tabs The Doors - People Are Strange tabs The Offspring - All I Want
e-chords

Other versions:

tabs Shinedown - Yer Majesty
auto scroll beats size up size down change color hide chords drawings
tab show chords e-chords YouTube Clip e-chords hide all tabs e-chords go to top tab

share