Shinedown

London Calling

Shinedown

tabs

by  MARCNAGEL

save to print version add songbook text version e-mail correct tuner
chordsukulelecavacokeyboardtabbassdrumsharmonicaflute Guitar Pro
close

there isn't a video lesson for this song

chords

London Calling

	  		


Intro/verse 

E|--------------------------------------------------| 
B|-----------8-----------------------8--------------| 
G|-----9--------9-----9------10---------10------10--| 
D|--------9--------9-----10------10---------10------| 
A|--7-----------------------------------------------| 
E|--------------------------------------------------| 


E|----------------------------------------------------------------------------| 
B|-----------8-----------------------8----------------------------------------| 
G|-----9--------9-----9------10---------10------10-------------12-------------| 
D|--------9--------9-----10------10---------10----------10---------12------12-| 
A|--7-----------------------------------------------10------10---------10-----| 
E|----------------------------------------------------------------------------| 



Chorus: strumming pattern not correct here! 

E|--00000---33333---00000---33333---00000-2222222222-| 
B|--00000---00000---00000---00000---00000-3333333333-| 
G|--00000-0-00000-0-00000-0-00000-0-00000-2222222222-| 
D|--22222-0-00000-0-22222-0-00000-0-22222-0000000000-| 
A|--22222-0-22222-0-22222-0-22222-0-22222------------| 
E|--------2-33333-2-------2-33333-2------------------| 




Bridge?: 

     pm        pm 
E|---------------------| 
B|--8888----8-8-8-8----| 
G|--9999----10101010---| 
D|--9999----10101010---| 
A|--7777---------------| 
E|---------------------| 

*these are 10th and 8th fret together not 1 and 0!! 
		  

See also:

tabs Jack Johnson - Good People tabs Rage Against The Machine - Killing In The Name (ver. 2) tabs Blue Oyster Cult - Dont Fear The Reaper tabs R.E.M. - Losing my religion tabs Smashing Pumpkins - Today tabs Foo Fighters - Learn to Fly (acoustic version)
e-chords

Other versions:

tabs The Calling - London Calling tabs Shinedown - London Calling
auto scroll beats size up size down change color hide chords drawings
tab show chords e-chords YouTube Clip e-chords hide all tabs e-chords go to top tab

share