Shinedown

Fly from the inside

Shinedown

tabs Intermediate intermediate

by  K2DAT

save to print version add songbook text version e-mail correct tuner
chordsukulelecavacokeyboardtabbassdrumsharmonicaflute Guitar Pro
close

there isn't a video lesson for this song

chords

Fly from the inside

	  		Hey  it shoul d be right if not report it  
  
  
Riff 1  
  
E--------------------------------------------8-8-8----  
B--------------------------------------------8-8-8----  
G----11--11-/-12---12---12---12-/--14---14--10-9-8----  
D--------------------------------------------8-8-10---  
A-----9---9-/-10---10---10---10-/--12---12---8-8-8----  
D--------------------------------------------8-8-8----  
  
     
Riff 2 (Distorted)  
  
E--------------------------------------  
B--------------------------------------  
G--------------------------------------  
D-----0-0-0-0-0-0-0-0-0-0-0-0-0-0-0-0-0  
A-----0-0-0-0-0-0-0-0-0-0-0-0-0-0-0-0-0 
D-----0-0-8-7-5-3-0-3-5-0-0-8-7-5-3-0-3 
  
  
Verse (Clean)  
  
E-----2--2--2--0--0--0--------------------  
B-----2--2--2--0--0--0--------------------  
G-----4--4--4--0--2--0--------------------  
D-----2--2--2--3--3--3--------------------  
A-----2--2--2--3--3--3--------------------  
D-----2--2--2--3--3--3--------------------  
  
  
pre-chorus 
  
E---5--5--8--8--8--5--5--8--8---10-------------- 
B---5--5--8--8--8--5--5--8--8---10-------------- 
G---7--7--10-9--8--7--7--10-10--12--------------  
D---5--5--8--8--10-5--5--8--8---10-------------- 
A---5--5--8--8--8--5--5--8--8---10-------------- 
D---5--5--8--8--8--5--5--8--8---10-------------- 
  
  
Chorus (Distorted)  
  
E-------------------------------------8---8---8---3--3--10--10---8---8---8---3--3--10--10  
B-------------------------------------8---8---8---3--3--10--10---8---8---8---3--3--10--10 
G--11-11-/-12--12--12--12-/--14--14---10--9---8---5--5--12--12---10--9---8---5--5--12--12 
D-------------------------------------8---8---10--3--3--10--10---8---8---10--3--3--10--10   
A--9--9-/--10--10--10--10-/--12--12---8---8---8---3--3--10--10---8---8---8---3--3--10--10 
D-------------------------------------8---8---8---3--3--10--10---8---8---8---3--3--10--10 
  
  
Bridge (Distorted)  
  
E----------------------------------  
B----------------------------------  
G----------------------------------  
D---0-0-3-3-0-0-3-3-0-0-0-3-3-3---- 
A---0-0-3-3-0-0-3-3-0-0-0-3-3-3---- 
D---0-0-3-3-0-0-3-3-0-0-0-3-3-3---- 
  
 hope this version helps its more like what they play on the album 
Song Order:  
  
Riff 1      x4  
Riff 2      x4  
Verse       x4  
Pre-Chorus  x1  
Chorus      x2  
Riff 2      x2  
Verse       x4  
Pre-Chorus  x1  
Chorus      x2  
Bridge      x8  
Riff 1      x2  
Chorus      x4  
Riff 2      x			  


		  

See also:

tabs Bon Jovi - It's My Life tabs Kiss - Forever tabs Aerosmith - Dream On tabs Foo Fighters - Everlong (acústico) tabs The Doors - People Are Strange tabs The Offspring - All I Want
e-chords

Other versions:

tabs Shinedown - Fly from the inside tabs Shinedown - Fly From The Inside (Ver. 2)
auto scroll beats size up size down change color hide chords drawings
tab show chords e-chords YouTube Clip e-chords hide all tabs e-chords go to top tab

share