Shelter

Spirits Blinded

Shelter

tabs

save to print version add songbook text version e-mail correct tuner
chordsukulelecavacokeyboardtabbassdrumsharmonicaflute Guitar Pro
close

there isn't a video lesson for this song

chords

Spirits Blinded

	  		 
   Intro 
E|-------------------------------------------------------------------------------------| 
B|-------------------------------------------------------------------------------------| 
G|--9-9-9--9-11-12-11----9-9-9--9-11-12------9-9-9--9-11-12-11--14-14--12-12--11-11-9--| 
D|--------------------------------------12---------------------------------------------| 
A|-------------------------------------------------------------------------------------| 
E|-------------------------------------------------------------------------------------| 
 
   Pre-Verse 
   _______________________________________________  ________________________________________________________________ 
  | 1.						   | 2. 
E|------------------------------------------------|-----------------------------------------------------------------| 
B|------------------------------------------(x )--|----------------------------------------------------10-10-10-10--| 
G|-------------5-5-5-5-----------7-7-7-7-7--------|-----------------------------------------------------------------| 
D|--2-2-2-2-2--5-5-5-5--5-5-5-5--7-7-7-7-7--------|-----------------------------------------------------------------| 
A|--2-2-2-2-2--3-3-3-3--5-5-5-5--5-5-5-5-5--------|--7-7-7-7-7-7-7-7-7-7--5-5-5---7-7-7-7-7-7-7-7-7-7---------------| 
E|--0-0-0-0-0-----------3-3-3-3-------------------|-----------------------------------------------------------------| 
 
   Verse					    Chorus	 
E|------------------------------------------------|-----------------------------------------------------------------| 
B|------------------------------------------(x )--|----------------8------------------------------------------------| 
G|-------------5-5-5-5-----------7-7-7-7-7--------|--9-9-9-9--7-7----7--5-5-5--4-4-4--5-5-5--4-4-4---9-9-9--7-7-7---| 
D|--2-2-2-2-2--5-5-5-5--5-5-5-5--7-7-7-7-7--------|--9-9-9-9--7-7-------5-5-5--4-4-4--5-5-5--4-4-4---9-9-9--7-7-7---| 
A|--2-2-2-2-2--3-3-3-3--5-5-5-5--5-5-5-5-5--------|--7-7-7-7--5-5-------3-3-3--2-2-2--3-3-3--2-2-2---7-7-7--5-5-5---| 
E|--0-0-0-0-0-----------3-3-3-3-------------------|-----------------------------------------------------------------| 
 
E|------------------------------------------------------------------------------------------------------------------| 
B|---------------------------8--------------------------------------------------------------------------------------| 
G|--5-5--4-7---9-9-9-9--7-7----7--5-5-5--4-4-4--5-5-5--4-4-4---9-9-9--7-7-7--5--------------------------------------| 
D|--5-5--4-7---9-9-9-9--7-7-------5-5-5--4-4-4--5-5-5--4-4-4---9-9-9--7-7-7--5--------------------------------------| 
A|--3-3--2-5---7-7-7-7--5-5-------3-3-3--2-2-2--3-3-3--2-2-2---7-7-7--5-5-5--3--2-0---------------------------------| 
E|----------------------------------------------------------------------------------3-------------------------------| 
 
   Repeat Pre-Verse/Verse/Chorus 
 
   Outro 
 
     E|---------------------------|--------------|     |------------------------------------|| 
     B|---------------------(x3)--|--------------|     |------------------------------------|| 
     G|--9-9-9--9-11-12-11--------|--14-14-12-12-|     |--9---------------------------------|| 
  1. D|---------------------------|--------------| xn  |------------------------------------|| 
     A|---------------------------|--------------|     |------------------------------------|| 
     E|---------------------------|--------------|     |------------------------------------|| 
 
     E|---------------------------|--------------|     |------------------------------------|| 
     B|---------------------(x3)--|--------------|     |------------------------------------|| 
     G|---------------------------|--7-7-7-7-7---|     |--9---------------------------------|| 
  2. D|--2-2-2-2-2-2-2-2-2--------|--7-7-7-7-7---| x2  |--9---------------------------------|| 
     A|--2-2-2-2-2-2-2-2-2--------|--5-5-5-5-5---|     |--7---------------------------------|| 
     E|--0-0-0-0-0-0-0-0-0--------|--------------|     |------------------------------------|| 
 

		  

See also:

tabs Simon & Garfunkel - Sounds of silence tabs R.E.M. - Everybody Hurts tabs Guns N' Roses - Knockin' On Heaven's Door tabs John Mayer - Belief tabs The Wonders - That Thing You Do tabs Cheap Trick - The Flame
e-chords

Other versions:

tabs Shelter - Spirits Blinded
auto scroll beats size up size down change color hide chords drawings
tab show chords e-chords YouTube Clip e-chords hide all tabs e-chords go to top tab

share