Shelter

Public Eye

Shelter

tabs

save to print version add songbook text version e-mail correct tuner
chordsukulelecavacokeyboardtabbassdrumsharmonicaflute Guitar Pro
close

there isn't a video lesson for this song

chords

Public Eye

	  		 
   Intro					      Verse 
E|-----|--------------------------------------------|--------------------------------------------------|-----| 
B|-----|--------------------------------------(x2)--|--------------------------------------------(x2)--|-----| 
G|-----|-----------9-9-9-9-----------7-6-4-6--------|--------------------------------------------------|-----| Bass 
D|--7--|--7-7-7-7--9-9-9-9--4-4-4-4--7-6-4-6--------|--7-7-7-7--9-9-9-9--11-11-11-11--12-11-9-11-------|--7--| line 
A|-----|--7-7-7-7--7-7-7-7--4-4-4-4--5-4-2-4--------|--------------------------------------------------|-----| 
E|-----|--5-5-5-5-----------2-2-2-2-----------------|--------------------------------------------------|-----| 
 
			Chorus								  Break/Outro 
E|--------------------|--------------------------------------------------------|        |--------------------| 
B|--------------------|--------------------------------------------------(x2)--|        |--------------------| 
G|-----------7-6-4-6--|--------------------------7-7-7-7-----------------------| Repeat |--------------------| 
D|--4-4-4-4--7-6-4-6--|--9-9-9-9-9-9--5-5-5-5-5--7-7-7-7--7-7-7-7-7-7-7--------| Verse/ |--7-7-7-7--9-9-9-9--| 
A|--4-4-4-4--5-4-2-4--|--9-9-9-9-9-9--5-5-5-5-5--5-5-5-5--7-7-7-7-7-7-7--------| Chorus |--------------------| 
E|--2-2-2-2-----------|--7-7-7-7-7-7--3-3-3-3-3-----------5-5-5-5-5-5-5--------|        |--------------------| 
 
E|----------------------------|--------|--12-12-12-12-12-12-12-12-12-12-12-12-12-12-12-----------------------|| 
B|----------------------------|--(x )--|---------------------------------------------------------------------|| 
G|----------------------------|--------|---------------------------------------------------------7-6-4-6-----|| 
D|--11-11-11-11--12-12-12-12--|--------|------------------------------------------------4-4-4-4--7-6-4-6--7--|| 
A|----------------------------|--------|------------------------------------------------4-4-4-4--5-4-2-4--7--|| 
E|----------------------------|--------|------------------------------------------------2-2-2-2-----------5--|| 
 

		  

See also:

tabs Live - Lightning Crashes tabs R.E.M. - Losing my religion tabs Aerosmith - I Don't Want To Miss A Thing tabs Blue Oyster Cult - Dont Fear The Reaper tabs Cheap Trick - The Flame tabs Guns N' Roses - Estranged
e-chords

Other versions:

tabs Shelter - Public Eye
auto scroll beats size up size down change color hide chords drawings
tab show chords e-chords YouTube Clip e-chords hide all tabs e-chords go to top tab

share