Shelter

Not Teh Flash

Shelter

tabs

save to print version add songbook text version e-mail correct tuner
chordsukulelecavacokeyboardtabbassdrumsharmonicaflute Guitar Pro
close

there isn't a video lesson for this song

chords

Not Teh Flash

	  		 
   Verse  
E|-----|---------------------------------|-----------------------------------| 
B|-----|---------------------------(x3)--|-----------------------------------| 
G|-----|---------------------------------|-----------------------12----------| 
D|--9--|-----------------------7-9-------|-----------------------12----------| 
A|--9--|-----------------------7-9-------|-----------------------10----------| 
E|--7--|--7-7-7-7-7-7-7-7-7-7--5/7-------|--7-7-7-7-7-7-7-7-7-7--------------| 
 
       			         
E|----------------------------------|----------------------------------------| 
B|----------------------------(x3)--|----------------------------------------| 
G|--*-*-*-*-*-*-*-*-*-*--*-*--------|-------------------12-12-12-------------| 
D|--9-9-9-9-9-9-9-9-9-9--7-9--------|--9-9-9-9-9-9-9-9--12-12-12-------------| 
A|--9-9-9-9-9-9-9-9-9-9--7-9--------|--9-9-9-9-9-9-9-9--10-10-10-------------| 
E|--7-7-7-7-7-7-7-7-7-7--5/7--------|--7-7-7-7-7-7-7-7-----------------------| 
 
E|---------------------------------------------------------------------------| 
B|---------------------------------------------------------------------(x2)--| 
G|--9-9-9-10--9-9-9-7--9-9-9-10--12-12-12------------------------------------| 
D|--9-9-9-10--9-9-9-7--9-9-9-10--12-12-12------------------------------------| 
A|--7-7-7/8---7-7-7/5--7-7-7/8---10-10-10------------------------------------| 
E|---------------------------------------------------------------------------| 
 
   Repeat Verse/Chorus 
 
   Break 
E|-----1-----------3---------------|-----1-----------------------------------| 
B|-------1-----------3-------(x )--|-------1---------------------------------| 
G|---------2-----------4-----------|---------2-------*-*-*-*-*-*--10-10------| 
D|--3--------3---5-------5---------|--3--------3---5-5-5-5-5-5-5--10-10------| 
A|--3------------5-----------------|--3------------5-5-5-5-5-5-5--8--8-------| 
E|--1------------3-----------------|--1------------3-3-3-3-3-3-3-------------| 
 
   Verse		    Chorus/Outro	 
E|------------------------|---------------------------------------------|----|| 
B|------------------------|----------------------------------------(x4)-|----|| 
G|--------------------12--|--9-9-9-10--9-9-9-7--9-9-9-10--12-12-12------|----|| 
D|--9--7-9--7-9--7-9--12--|--9-9-9-10--9-9-9-7--9-9-9-10--12-12-12------|-9--|| 
A|--9--7-9--7-9--7-9--10--|--7-7-7/8---7-7-7/5--7-7-7/8---10-10-10------|-9--|| 
E|--7--5/7--5/7--5/7------|---------------------------------------------|-7--|| 
 
 

		  

See also:

tabs Simon & Garfunkel - Sounds of silence tabs R.E.M. - Everybody Hurts tabs Guns N' Roses - Knockin' On Heaven's Door tabs John Mayer - Belief tabs The Wonders - That Thing You Do tabs Cheap Trick - The Flame
e-chords

Other versions:

tabs Shelter - Not Teh Flash
auto scroll beats size up size down change color hide chords drawings
tab show chords e-chords YouTube Clip e-chords hide all tabs e-chords go to top tab

share