Shelter

Mantra

Shelter

tabs Beginner beginner

save to print version add songbook text version e-mail correct tuner
chordsukulelecavacokeyboardtabbassdrumsharmonicaflute Guitar Pro
close

there isn't a video lesson for this song

chords

Mantra

	  		 
   Intro 
E|--2-2--0-0--1-1--0-0-0--------|--------------------------------------------| 
B|--3-3--1-1--1-1--1-1-1--(x2)--|--------------------------------------(x4)--| 
C|--2-2--0-0--2-2--0-0-0--------|--7-7--5-5-------5-5-5----------------------| 
D|--0-0--2-2--3-3--2-2-2--------|--7-7--5-5--3-3--5-5-5----------------------| 
A|-------3-3--3-3--3-3-3--------|--5-5--3-3--3-3--3-3-3----------------------| 
E|------------1-1---------------|------------1-1-----------------------------| 
 
   Verse 
E|-------------------------------|-------------------------------------------| 
B|-------------------------(x4)--|------10------------10---------------------| 
C|-------------------------------|--7-7-----7-7-7-7-7-----7-7-7-7-7----------| 
D|-------------------------------|-------------------------------------------| 
A|--5-5--3-3-------3-3-3---------|-------------------------------------------| 
E|------------1-1----------------|-------------------------------------------| 
 
   Chorus                                  
E|------------------------------|--------------------------------------------| 
B|------------------------(x4)--|--------------------------------------(x4)--| 
C|--7-7--5-5-------5-5-5--------|--9-9-9-9-9---------------------------------| 
D|--7-7--5-5--3-3--5-5-5--------|--9-9-9-9-9--5-5-5-5-5----------------------| 
A|--5-5--3-3--3-3--3-3-3--------|--7-7-7-7-7--5-5-5-5-5----------------------| 
E|------------1-1---------------|-------------3-3-3-3-3----------------------| 
  
   Repeat Verse/Chorus 
 
   Break 
E|----------------------------------------------------------------------------| 
B|----------------------------------------------------------------------(x4)--| 
C|--7--4-5-6------------------------------------------------------------------| 
D|--7--4-5-6------------------------------------------------------------------| 
A|--5--2-3-4------------------------------------------------------------------| 
E|----------------------------------------------------------------------------| 
 
   Solo 
E|----------------------------------------------------------------------------| 
B|------------------6---------------------------------------------------------| 
C|--5-7-7-5--7-5-7-----7-5-7-5-7----------------------------------------------| 
D|--------------------------------5-7-7-7-5-7--8-7-5-7------------------------| 
A|----------------------------------------------------------------------------| 
E|----------------------------------------------------------------------------| 
 
E|-------------------------5--------8----10-10-10--11-10-8-10-8-10------------| 
B|--------5----------6-8-6---8-10-8-------------------------------------------| 
C|--5-7-5---7-9-7-10----------------------------------------------------------| 
D|----------------------------------------------------------------------------| 
A|----------------------------------------------------------------------------| 
E|----------------------------------------------------------------------------| 
 
   Outro 
E|-------------------------------|------------------------------|-------------|| 
B|-------------------------(x3)--|------------------------(x )--|-------------|| 
C|-------------------------------|--7-7--5-5-------5-5-5--------|--7----------|| 
D|-------------------------------|--7-7--5-5--3-3--5-5-5--------|--7----------|| 
A|--5-5--3-3-------3-3-3---------|--5-5--3-3--3-3--3-3-3--------|--5----------|| 
E|------------1-1----------------|------------1-1---------------|-------------|| 
 
 

		  

See also:

tabs Live - Lightning Crashes tabs R.E.M. - Losing my religion tabs Aerosmith - I Don't Want To Miss A Thing tabs Blue Oyster Cult - Dont Fear The Reaper tabs Cheap Trick - The Flame tabs Guns N' Roses - Estranged
e-chords

Other versions:

tabs Shelter - Mantra tabs L7 - Mantra Down
auto scroll beats size up size down change color hide chords drawings
tab show chords e-chords YouTube Clip e-chords hide all tabs e-chords go to top tab

share