Shelter

In The Van Again

Shelter

tabs

save to print version add songbook text version e-mail correct tuner
chordsukulelecavacokeyboardtabbassdrumsharmonicaflute Guitar Pro
close

there isn't a video lesson for this song

chords

In The Van Again

	  		 
   Intro 
E|---------------------------------------------------------------------------| 
B|---------------------------------------------------------------------------| 
G|--5--7--10--10-9-----7----5---7--------------------------------------------| 
D|--5--7--10--10-9-10--7----5---7---3-3-3-3-3--------------------------------| 
A|--3--5--8---8--7-10--5----3---5---3-3-3-3-3--------------------------------| 
E|-----------------8----------------1-1-1-1-1--------------------------------| 
 
   Verse/Chorus 
E|-------------------------------------------------------|-------------------| 
B|-------------------------------------------------(x )--|-------------------| 
G|--5-5-5-5-5--7-7-7-7--10-10-10-10-10--10-9----7--------|--7--5-------------| 
D|--5-5-5-5-5--7-7-7-7--10-10-10-10-10--10-9-10-7--------|--7--5-------------| 
A|--3-3-3-3-3--5-5-5-5--8--8--8--8--8---8--7-10-5--------|--5--3-------------| 
E|-------------------------------------------8-----------|-------------------| 
 
   Repeat Verse/Chorus 
 
   Break 
E|----------------------------------------------|---------------------------------------------| 
B|----------------------------------------(x )--|---------------------------------------------| 
G|--5-5-5-5-----------5-5--3-3--5-5--3-3--------|---------------------------------------------| 
D|--5-5-5-5--5-5-5-5--3-3--3-3--3-3--3-3--------|---------------------------------------------| 
A|--3-3-3-3--5-5-5-5-------1-1-------1-1--------|--3-3-3-3-3--5-5-5-5-5--8-8-8-8-8--10-10-10--| 
E|-----------3-3-3-3----------------------------|---------------------------------------------| 
 
E|-------------------------------|        |---------------------------------------------------| 
B|-------------------------------|        |---------------------------------------------------| 
G|--5--7--5---5--7---------------| Repeat |--5------------------------------------------------| 
D|------------------3-3-3-3-3-3--| Verse/ |--5------------------------------------------------| 
A|--3--5--3---3--5--3-3-3-3-3-3--| Chorus |--3------------------------------------------------| 
E|------------------1-1-1-1-1-1--|        |---------------------------------------------------| 
 

		  

See also:

tabs Simon & Garfunkel - Sounds of silence tabs R.E.M. - Everybody Hurts tabs Guns N' Roses - Knockin' On Heaven's Door tabs John Mayer - Belief tabs The Wonders - That Thing You Do tabs Cheap Trick - The Flame
e-chords

Other versions:

tabs Shelter - In The Van Again
auto scroll beats size up size down change color hide chords drawings
tab show chords e-chords YouTube Clip e-chords hide all tabs e-chords go to top tab

share