Shelter

Here We Go

Shelter

tabs Beginner beginner

save to print version add songbook text version e-mail correct tuner
chordsukulelecavacokeyboardtabbassdrumsharmonicaflute Guitar Pro
close

there isn't a video lesson for this song

chords

Here We Go

	  		 
  Verse 
E|--------------------------------------------|------------------------------| 
B|-----------*-*-*-*--*-*-*-*-----------(x3)--|---------*-*----*-*-----------| 
C|--*-*-*-*--5-5-5-5--6-6-6-6--*-*-*-*--------|--*-*----5-5-5--6-6-6--*-*----| 
D|--6-6-6-6--5-5-5-5--6-6-6-6--8-8-8-8--------|--6-6-6--5-5-5--6-6-6--8-8-8--| 
A|--6-6-6-6--3-3-3-3--4-4-4-4--8-8-8-8--------|--6-6-6--3-3-3--4-4-4--8-8-8--| 
E|--4-4-4-4--------------------6-6-6-6--------|--4-4-4----------------6-6-6--| 
 
  Chorus			Bridge 
E|----------------------------|----------------------------------------------| 
B|----------------------(x4)--|----------------------------------------------| 
C|------------6-6-------------|--5-5-5-5-5-5-5--6----------------------------| 
D|--3-3--6-6--6-6--8-8--------|--5-5-5-5-5-5-5--6----------------------------| 
A|--3-3--6-6--4-4--8-8--------|--3-3-3-3-3-3-3--4----------------------------| 
E|--1-1--4-4-------6-6--------|----------------------------------------------| 
 
   Repeat Verse/Chorus 
  
   Break 
E|--------------------------|-------------------------------8-8-8------------| 
B|--------------------(x4)--|-------------------------------9-9-9------------| 
C|--6-6-6-6--8-8-8-8--------|-------------------------------8-8-8------------| 
D|--6-6-6-6--8-8-8-8--------|------------------------------------------------| 
A|--4-4-4-4--6-6-6-6--------|---------3-3-3--4-4-4---------------------------| 
E|--------------------------|--4-4-4----------------6-6-6--------------------| 
 
E|-----------------------------------8---------------------------------------| 
B|-------------------------------------9-------------------------------------| 
C|--------------------------------8------8-----------------------------------| 
D|---------------------------------------------------------------------------| 
A|---------3-3-3--4-4-4------------------------------3-3-3--4-4-4------------| 
E|--4-4-4----------------6-6-6----------------4-4-4----------------6-6-6-----| 
 
E|------8--------------------------------------------------------------------| 
B|---------9---9-9-9-9-9-----------------------------------------------------| 
C|----8------8---------------------------------------------------------------| 
D|---------------------------------------------------------------------------| 
A|---------------------------------------------------------------------------| 
E|---------------------------------------------------------------------------| 
   
   Repeat Verse 
 
   Chorus/Outro 
E|-----------------------------|---------------------------------------------|| 
B|-----------------------(x8)--|---------------------------------------------|| 
C|-------------6-6-------------|---------------------------------------------|| 
D|--3-3---6-6--6-6--8-8--------|--3------------------------------------------|| 
A|--3-3---6-6--4-4--8-8--------|--3------------------------------------------|| 
E|--1-1---4-4-------6-6--------|--1------------------------------------------|| 
 

		  

See also:

tabs Live - Lightning Crashes tabs R.E.M. - Losing my religion tabs Aerosmith - I Don't Want To Miss A Thing tabs Blue Oyster Cult - Dont Fear The Reaper tabs Cheap Trick - The Flame tabs Guns N' Roses - Estranged
e-chords

Other versions:

tabs N'Sync - Here We Go tabs Shelter - Here We Go tabs Nomad - Here We Go tabs Lower Than Atlantis - Here We Go tabs Paramore - Here We Go Again tabs Marshmello - Here We Go Again
auto scroll beats size up size down change color hide chords drawings
tab show chords e-chords YouTube Clip e-chords hide all tabs e-chords go to top tab

share