Shelter

Empathy

Shelter

tabs

save to print version add songbook text version e-mail correct tuner
chordsukulelecavacokeyboardtabbassdrumsharmonicaflute Guitar Pro
close

there isn't a video lesson for this song

chords

Empathy

	  		 
   Intro Bass/Guitar 
E|-----|----------------------------|----------------------------------------| 
B|-----|----------------------(x2)--|----------------------------------------| 
C|-----|----------------------------|--5-5-----------------5-----------------| 
D|--7--|----------------------------|--5-5-----------------5-----------------| 
A|--7--|--3-3-3--5-5-5--------------|--3-3--5-5-5----------3--5-5-5----------| 
E|--5--|----------------5-5-5-5-----|--------------5-5-5-------------5-5-5---| 
 
E|---------------------------------------------------------------------------| 
B|---------------------------10-10-10-10-------------------------------(x4)--| 
C|--5-5-5-5--7-7-7-7---------9--9--9--9--------------------------------------| 
D|--5-5-5-5--7-7-7-7--7-7-7--7--7--7--7--------------------------------------| 
A|--3-3-3-3--5-5-5-5--7-7-7--------------------------------------------------| 
E|--------------------5-5-5--------------------------------------------------| 
 
   Verse Bass/Guitar 
E|-------------------------|-------------------------------------------------| 
B|-------------------(x3)--|--*-*-*--*-*-*-----------10-10-10-10-------------| 
C|-------------------------|--5-5-5--7-7-7-----------9--9--9--9--------------|  
D|----------------7--------|--5-5-5--7-7-7--7-7-7-7--7--7--7--7--------------| Repeat  
A|--3-3-3--5-5-5--7--------|--3-3-3--5-5-5--7-7-7-7--------------------------| 
E|----------------5--------|----------------5-5-5-5--------------------------| 
 
   Chorus 
E|---------------------------------------------------------------------------| 
B|---------------------------10-10-10-10-------------------------------(x4)--| 
C|--5-5-5-5--7-7-7-7---------9--9--9--9--------------------------------------| 
D|--5-5-5-5--7-7-7-7--7-7-7--7--7--7--7--------------------------------------| 
A|--3-3-3-3--5-5-5-5--7-7-7--------------------------------------------------| 
E|--------------------5-5-5--------------------------------------------------| 
 
E|-----------------------------|--------------------------|------------------| 
B|-----------------------(x4)--|---------------------(x4)-|-------------(x4)-| 
C|---------------9-9-9-9-------|-----------10-10-10-------|------------------| 
D|--3-3-3-3-3-3--9-9-9-9-------|--7-7-7-7--10-10-10-------|--7-7-7---3-3-----| 
A|--3-3-3-3-3-3--7-7-7-7-------|--7-7-7-7--8--8--8--------|----------3-3-----| 
E|--1-1-1-1-1-1----------------|--5-5-5-5-----------------|----------1-1-----| 
 
   Repeat Verse/Chorus 
 
   Break 
E|---------------|-----------------------------------------------------------| 
B|---------(x3)--|--*-*-*-*--*-*-*--10-10-10-10-10---------------------------| 
G|--12--9--------|--5-5-5-5--7-7-7--9--9--9--9--9----------------------------| 
D|---------------|--5-5-5-5--7-7-7--7--7--7--7--7----------------------------| 
A|---------------|--3-3-3-3--5-5-5-------------------------------------------| 
E|---------------|-----------------------------------------------------------| 
 
   Outro 
E|----------------------------------------------|----------------------------|| 
B|---------------------------10-10-10-10--(x7)--|----------------------------|| 
C|--5-5-5-5--7-7-7-7---------9--9--9--9---------|--5-5-5--7-7-7--------------|| 
D|--5-5-5-5--7-7-7-7--7-7-7--7--7--7--7---------|--5-5-5--7-7-7--7-----------|| 
A|--3-3-3-3--5-5-5-5--7-7-7---------------------|--3-3-3--5-5-5--7-----------|| 
E|--------------------5-5-5---------------------|----------------5-----------|| 
 

		  

See also:

tabs Live - Lightning Crashes tabs R.E.M. - Losing my religion tabs Aerosmith - I Don't Want To Miss A Thing tabs Blue Oyster Cult - Dont Fear The Reaper tabs Cheap Trick - The Flame tabs Guns N' Roses - Estranged
e-chords

Other versions:

tabs Shelter - Empathy
auto scroll beats size up size down change color hide chords drawings
tab show chords e-chords YouTube Clip e-chords hide all tabs e-chords go to top tab

share