Shawn Mcdonald

Pour out

Shawn Mcdonald

tabs

by  EL TOCADOR

save to print version add songbook text version e-mail correct tuner
chordsukulelecavacokeyboardtabbassdrumsharmonicaflute Guitar Pro
close

there isn't a video lesson for this song

chords

Pour out

Year: 2006 - Album: Ripen

	  		each dash represents an eighth note; every 2 is one beat 

 

INTRO: 

e---3---3---3--3-3--3----3----3---3-3--3----3----3---3-3--3----3----3---3-3 
B---1---1---1--1-1--1----1----1---1-1--1----1----1---1-1--1----1----1---1-1 
G---0---0---0--0-0--0----0----0---0-0--0----0----0---0-0--0----0----0---0-0 
D---------------------2----2----2--------2----2----2--------2----2----2---- 
A-3---3---3---3-2-0----0----0----0-2-3----3----3----3-2-0----0----0----0-2- 
E-------------------------------------------------------------------------- 

VERSE (continued intro): 

e--3----3--------3-3--3----3----3---3-3--3----3----3---3-3--3----3----3---3 
B--1----1--------1-1--1----1----1---1-1--1----1----1---1-1--1----1----1---1 
G--0----0--------0-0--0----0----0---0-0--0----0----0---0-0--0----0----0---0 
D----2----2----2--------2----2----2--------2----2----2--------2----2----2-- 
A3----3----3----3-2-0----0----0----0-2-3----3----3----3-2-0----0----0----0- 
E-------------------------------------------------------------------------- 

dont know the Chorus, sorry 

		  

See also:

tabs The Raveonettes - joy to the world tabs Caedmon's Call - Lead of Love tabs Pillar - Fireproof tabs Hillsong London - Lord Of All tabs Planetshakers - Fall in this place tabs Hillsong - What the world will never take
e-chords

Other versions:

tabs Shawn Mcdonald - Pour out
auto scroll beats size up size down change color hide chords drawings
tab show chords e-chords YouTube Clip e-chords hide all tabs e-chords go to top tab

share